  0
SECTION
  2
HEADER
  9
$ACADVER
  1
AC1009
  9
$INSBASE
 10
0.0
 20
0.0
 30
0.0
  9
$EXTMIN
 10
0.0
 20
0.0
 30
0.0
  9
$EXTMAX
 10
0.0
 20
0.0
 30
0.0
  0
ENDSEC
  0
SECTION
  2
TABLES
  0
TABLE
  2
VPORT
 70
0
  0
ENDTAB
  0
TABLE
  2
LTYPE
 70
1
  0
LTYPE
  2
CONTINUOUS
 70
0
  3
Solid line
 72
65
 73
0
 40
0.0
  0
ENDTAB
  0
TABLE
  2
LAYER
 70
1
  0
LAYER
  2
0
 70
64
 62
7
  6
continuous
  0
ENDTAB
  0
TABLE
  2
STYLE
 70
1
  0
STYLE
  2
STANDARD
 70
0
 40
0
 41
1.0
 50
0.0
 71
0
 42
1
 3
ARIAL.TTF
 4

  0
ENDTAB
  0
TABLE
  2
VIEW
 70
0
  0
ENDTAB
  0
ENDSEC
  0
SECTION
  2
BLOCKS
  0
BLOCK
  8
0
  2
FUSION005
 70
0
 10
0.0
 20
0.0
 30
0.0
  3
FUSION005
  0
POLYLINE
  8
0
 62
0
 70
1
 66
1
 10
0.0
 20
0.0
 30
0.0
  0
VERTEX
  8
0
 10
2.3
 20
1.6
 30
0.0
  0
VERTEX
  8
0
 10
2.3
 20
1.55
 30
0.0
  0
VERTEX
  8
0
 10
2.3
 20
1.5
 30
0.0
  0
VERTEX
  8
0
 10
2.3
 20
1.45
 30
0.0
  0
VERTEX
  8
0
 10
2.3
 20
1.4
 30
0.0
  0
VERTEX
  8
0
 10
2.3
 20
1.35
 30
0.0
  0
SEQEND
  8
0
  0
POLYLINE
  8
0
 62
0
 70
1
 66
1
 10
0.0
 20
0.0
 30
0.0
  0
VERTEX
  8
0
 10
13.7
 20
1.6
 30
0.0
  0
VERTEX
  8
0
 10
13.7
 20
1.55
 30
0.0
  0
VERTEX
  8
0
 10
13.7
 20
1.5
 30
0.0
  0
VERTEX
  8
0
 10
13.7
 20
1.45
 30
0.0
  0
VERTEX
  8
0
 10
13.7
 20
1.4
 30
0.0
  0
VERTEX
  8
0
 10
13.7
 20
1.35
 30
0.0
  0
SEQEND
  8
0
  0
POLYLINE
  8
0
 62
0
 70
1
 66
1
 10
0.0
 20
0.0
 30
0.0
  0
VERTEX
  8
0
 10
13.7
 20
1.6
 30
0.0
  0
VERTEX
  8
0
 10
13.75
 20
1.6
 30
0.0
  0
VERTEX
  8
0
 10
13.8
 20
1.6
 30
0.0
  0
VERTEX
  8
0
 10
13.85
 20
1.6
 30
0.0
  0
VERTEX
  8
0
 10
13.9
 20
1.6
 30
0.0
  0
VERTEX
  8
0
 10
13.95
 20
1.6
 30
0.0
  0
SEQEND
  8
0
  0
POLYLINE
  8
0
 62
0
 70
1
 66
1
 10
0.0
 20
0.0
 30
0.0
  0
VERTEX
  8
0
 10
13.7
 20
14.9
 30
0.0
  0
VERTEX
  8
0
 10
13.75
 20
14.9
 30
0.0
  0
VERTEX
  8
0
 10
13.8
 20
14.9
 30
0.0
  0
VERTEX
  8
0
 10
13.85
 20
14.9
 30
0.0
  0
VERTEX
  8
0
 10
13.9
 20
14.9
 30
0.0
  0
VERTEX
  8
0
 10
13.95
 20
14.9
 30
0.0
  0
SEQEND
  8
0
  0
POLYLINE
  8
0
 62
0
 70
1
 66
1
 10
0.0
 20
0.0
 30
0.0
  0
VERTEX
  8
0
 10
13.7
 20
14.9
 30
0.0
  0
VERTEX
  8
0
 10
13.7
 20
14.95
 30
0.0
  0
VERTEX
  8
0
 10
13.7
 20
15.0
 30
0.0
  0
VERTEX
  8
0
 10
13.7
 20
15.05
 30
0.0
  0
VERTEX
  8
0
 10
13.7
 20
15.1
 30
0.0
  0
VERTEX
  8
0
 10
13.7
 20
15.15
 30
0.0
  0
SEQEND
  8
0
  0
POLYLINE
  8
0
 62
0
 70
1
 66
1
 10
0.0
 20
0.0
 30
0.0
  0
VERTEX
  8
0
 10
2.3
 20
14.9
 30
0.0
  0
VERTEX
  8
0
 10
2.3
 20
14.95
 30
0.0
  0
VERTEX
  8
0
 10
2.3
 20
15.0
 30
0.0
  0
VERTEX
  8
0
 10
2.3
 20
15.05
 30
0.0
  0
VERTEX
  8
0
 10
2.3
 20
15.1
 30
0.0
  0
VERTEX
  8
0
 10
2.3
 20
15.15
 30
0.0
  0
SEQEND
  8
0
  0
POLYLINE
  8
0
 62
0
 70
1
 66
1
 10
0.0
 20
0.0
 30
0.0
  0
VERTEX
  8
0
 10
2.3
 20
14.9
 30
0.0
  0
VERTEX
  8
0
 10
2.25
 20
14.9
 30
0.0
  0
VERTEX
  8
0
 10
2.2
 20
14.9
 30
0.0
  0
VERTEX
  8
0
 10
2.15
 20
14.9
 30
0.0
  0
VERTEX
  8
0
 10
2.1
 20
14.9
 30
0.0
  0
VERTEX
  8
0
 10
2.05
 20
14.9
 30
0.0
  0
SEQEND
  8
0
  0
POLYLINE
  8
0
 62
0
 70
1
 66
1
 10
0.0
 20
0.0
 30
0.0
  0
VERTEX
  8
0
 10
2.3
 20
1.6
 30
0.0
  0
VERTEX
  8
0
 10
2.25
 20
1.6
 30
0.0
  0
VERTEX
  8
0
 10
2.2
 20
1.6
 30
0.0
  0
VERTEX
  8
0
 10
2.15
 20
1.6
 30
0.0
  0
VERTEX
  8
0
 10
2.1
 20
1.6
 30
0.0
  0
VERTEX
  8
0
 10
2.05
 20
1.6
 30
0.0
  0
SEQEND
  8
0
  0
LINE
  8
0
 62
0
 10
12.0
 20
16.0
 30
0.0
 11
14.0
 21
16.0
 31
0.0
  0
LINE
  8
0
 62
0
 10
14.0
 20
16.0
 30
0.0
 11
14.0
 21
17.2
 31
0.0
  0
LINE
  8
0
 62
0
 10
14.0
 20
17.2
 30
0.0
 11
12.0
 21
17.2
 31
0.0
  0
LINE
  8
0
 62
0
 10
12.0
 20
17.2
 30
0.0
 11
12.0
 21
16.0
 31
0.0
  0
LINE
  8
0
 62
0
 10
14.0
 20
16.0
 30
0.0
 11
14.0
 21
17.2
 31
0.0
  0
LINE
  8
0
 62
0
 10
16.0
 20
14.59
 30
0.0
 11
16.0
 21
24.0
 31
0.0
  0
LINE
  8
0
 62
0
 10
16.0
 20
24.0
 30
0.0
 11
0.0
 21
24.0
 31
0.0
  0
LINE
  8
0
 62
0
 10
0.0
 20
24.0
 30
0.0
 11
2.88098159499e-16
 21
14.59
 31
0.0
  0
LINE
  8
0
 62
0
 10
16.0
 20
12.79
 30
0.0
 11
16.0
 21
13.59
 31
0.0
  0
LINE
  8
0
 62
0
 10
3.18714329477e-16
 20
13.59
 30
0.0
 11
3.4320726546e-16
 21
12.79
 31
0.0
  0
LINE
  8
0
 62
0
 10
16.0
 20
10.99
 30
0.0
 11
16.0
 21
11.79
 31
0.0
  0
LINE
  8
0
 62
0
 10
3.73823435439e-16
 20
11.79
 30
0.0
 11
3.98316371422e-16
 21
10.99
 31
0.0
  0
LINE
  8
0
 62
0
 10
16.0
 20
9.19
 30
0.0
 11
16.0
 21
9.99
 31
0.0
  0
LINE
  8
0
 62
0
 10
4.289325414e-16
 20
9.99
 30
0.0
 11
4.53425477383e-16
 21
9.19
 31
0.0
  0
LINE
  8
0
 62
0
 10
16.0
 20
7.39
 30
0.0
 11
16.0
 21
8.19
 31
0.0
  0
LINE
  8
0
 62
0
 10
4.84041647362e-16
 20
8.19
 30
0.0
 11
5.08534583345e-16
 21
7.39
 31
0.0
  0
LINE
  8
0
 62
0
 10
16.0
 20
5.59
 30
0.0
 11
16.0
 21
6.39
 31
0.0
  0
LINE
  8
0
 62
0
 10
5.39150753323e-16
 20
6.39
 30
0.0
 11
5.63643689306e-16
 21
5.59
 31
0.0
  0
LINE
  8
0
 62
0
 10
16.0
 20
3.79
 30
0.0
 11
16.0
 21
4.59
 31
0.0
  0
LINE
  8
0
 62
0
 10
5.94259859285e-16
 20
4.59
 30
0.0
 11
6.18752795268e-16
 21
3.79
 31
0.0
  0
LINE
  8
0
 62
0
 10
16.0
 20
1.99
 30
0.0
 11
16.0
 21
2.79
 31
0.0
  0
LINE
  8
0
 62
0
 10
6.49368965246e-16
 20
2.79
 30
0.0
 11
6.73861901229e-16
 21
1.99
 31
0.0
  0
LINE
  8
0
 62
0
 10
16.0
 20
0.0
 30
0.0
 11
16.0
 21
0.99
 31
0.0
  0
LINE
  8
0
 62
0
 10
13.0
 20
3.98010209722e-16
 30
0.0
 11
16.0
 21
4.89858719658e-16
 31
0.0
  0
LINE
  8
0
 62
0
 10
7.04478071208e-16
 20
0.99
 30
0.0
 11
7.34788079486e-16
 21
0.0
 31
0.0
  0
LINE
  8
0
 62
0
 10
0.0
 20
0.0
 30
0.0
 11
3.0
 21
9.18485099358e-17
 31
0.0
  0
LINE
  8
0
 62
0
 10
11.2
 20
3.4290110376e-16
 30
0.0
 11
12.0
 21
3.67394039743e-16
 31
0.0
  0
LINE
  8
0
 62
0
 10
4.0
 20
1.22464679914e-16
 30
0.0
 11
4.8
 21
1.46957615897e-16
 31
0.0
  0
LINE
  8
0
 62
0
 10
9.4
 20
2.87791997799e-16
 30
0.0
 11
10.2
 21
3.12284933782e-16
 31
0.0
  0
LINE
  8
0
 62
0
 10
5.8
 20
1.77573785876e-16
 30
0.0
 11
6.6
 21
2.02066721859e-16
 31
0.0
  0
LINE
  8
0
 62
0
 10
7.6
 20
2.32682891837e-16
 30
0.0
 11
8.4
 21
2.5717582782e-16
 31
0.0
  0
ARC
  8
0
 62
0
 10
13.7
 20
1.6
 30
0.0
 40
0.3
 50
-90.0
 51
-0.0
  0
LINE
  8
0
 62
0
 10
14.0
 20
1.6
 30
0.0
 11
14.0
 21
14.9
 31
0.0
  0
ARC
  8
0
 62
0
 10
13.7
 20
14.9
 30
0.0
 40
0.3
 50
-0.0
 51
90.0
  0
LINE
  8
0
 62
0
 10
13.7
 20
15.2
 30
0.0
 11
2.3
 21
15.2
 31
0.0
  0
ARC
  8
0
 62
0
 10
2.3
 20
14.9
 30
0.0
 40
0.3
 50
90.0
 51
180.0
  0
LINE
  8
0
 62
0
 10
4.5
 20
19.0
 30
0.0
 11
4.5
 21
23.0
 31
0.0
  0
LINE
  8
0
 62
0
 10
6.5
 20
19.0
 30
0.0
 11
6.5
 21
23.0
 31
0.0
  0
LINE
  8
0
 62
0
 10
8.5
 20
19.0
 30
0.0
 11
8.5
 21
23.0
 31
0.0
  0
LINE
  8
0
 62
0
 10
10.0
 20
16.0
 30
0.0
 11
10.0
 21
16.5
 31
0.0
  0
LINE
  8
0
 62
0
 10
3.5
 20
16.5
 30
0.0
 11
3.5
 21
22.5
 31
0.0
  0
LINE
  8
0
 62
0
 10
14.0
 20
22.5
 30
0.0
 11
14.0
 21
23.0
 31
0.0
  0
LINE
  8
0
 62
0
 10
9.5
 20
18.5
 30
0.0
 11
9.5
 21
22.5
 31
0.0
  0
LINE
  8
0
 62
0
 10
5.5
 20
18.5
 30
0.0
 11
5.5
 21
22.5
 31
0.0
  0
LINE
  8
0
 62
0
 10
7.5
 20
18.5
 30
0.0
 11
7.5
 21
22.5
 31
0.0
  0
LINE
  8
0
 62
0
 10
16.0
 20
14.59
 30
0.0
 11
14.6
 21
14.59
 31
0.0
  0
LINE
  8
0
 62
0
 10
14.6
 20
14.59
 30
0.0
 11
14.6
 21
13.59
 31
0.0
  0
LINE
  8
0
 62
0
 10
14.6
 20
13.59
 30
0.0
 11
16.0
 21
13.59
 31
0.0
  0
LINE
  8
0
 62
0
 10
1.4
 20
14.59
 30
0.0
 11
0.0
 21
14.59
 31
0.0
  0
LINE
  8
0
 62
0
 10
1.4
 20
13.59
 30
0.0
 11
1.4
 21
14.59
 31
0.0
  0
LINE
  8
0
 62
0
 10
16.0
 20
12.79
 30
0.0
 11
14.6
 21
12.79
 31
0.0
  0
LINE
  8
0
 62
0
 10
0.0
 20
13.59
 30
0.0
 11
1.4
 21
13.59
 31
0.0
  0
LINE
  8
0
 62
0
 10
14.6
 20
12.79
 30
0.0
 11
14.6
 21
11.79
 31
0.0
  0
LINE
  8
0
 62
0
 10
14.6
 20
11.79
 30
0.0
 11
16.0
 21
11.79
 31
0.0
  0
LINE
  8
0
 62
0
 10
1.4
 20
12.79
 30
0.0
 11
0.0
 21
12.79
 31
0.0
  0
LINE
  8
0
 62
0
 10
1.4
 20
11.79
 30
0.0
 11
1.4
 21
12.79
 31
0.0
  0
LINE
  8
0
 62
0
 10
16.0
 20
10.99
 30
0.0
 11
14.6
 21
10.99
 31
0.0
  0
LINE
  8
0
 62
0
 10
0.0
 20
11.79
 30
0.0
 11
1.4
 21
11.79
 31
0.0
  0
LINE
  8
0
 62
0
 10
14.6
 20
10.99
 30
0.0
 11
14.6
 21
9.99
 31
0.0
  0
LINE
  8
0
 62
0
 10
14.6
 20
9.99
 30
0.0
 11
16.0
 21
9.99
 31
0.0
  0
LINE
  8
0
 62
0
 10
1.4
 20
10.99
 30
0.0
 11
0.0
 21
10.99
 31
0.0
  0
LINE
  8
0
 62
0
 10
1.4
 20
9.99
 30
0.0
 11
1.4
 21
10.99
 31
0.0
  0
LINE
  8
0
 62
0
 10
16.0
 20
9.19
 30
0.0
 11
14.6
 21
9.19
 31
0.0
  0
LINE
  8
0
 62
0
 10
0.0
 20
9.99
 30
0.0
 11
1.4
 21
9.99
 31
0.0
  0
LINE
  8
0
 62
0
 10
14.6
 20
9.19
 30
0.0
 11
14.6
 21
8.19
 31
0.0
  0
LINE
  8
0
 62
0
 10
14.6
 20
8.19
 30
0.0
 11
16.0
 21
8.19
 31
0.0
  0
LINE
  8
0
 62
0
 10
1.4
 20
9.19
 30
0.0
 11
0.0
 21
9.19
 31
0.0
  0
LINE
  8
0
 62
0
 10
1.4
 20
8.19
 30
0.0
 11
1.4
 21
9.19
 31
0.0
  0
LINE
  8
0
 62
0
 10
16.0
 20
7.39
 30
0.0
 11
14.6
 21
7.39
 31
0.0
  0
LINE
  8
0
 62
0
 10
0.0
 20
8.19
 30
0.0
 11
1.4
 21
8.19
 31
0.0
  0
LINE
  8
0
 62
0
 10
14.6
 20
7.39
 30
0.0
 11
14.6
 21
6.39
 31
0.0
  0
LINE
  8
0
 62
0
 10
14.6
 20
6.39
 30
0.0
 11
16.0
 21
6.39
 31
0.0
  0
LINE
  8
0
 62
0
 10
1.4
 20
7.39
 30
0.0
 11
0.0
 21
7.39
 31
0.0
  0
LINE
  8
0
 62
0
 10
1.4
 20
6.39
 30
0.0
 11
1.4
 21
7.39
 31
0.0
  0
LINE
  8
0
 62
0
 10
16.0
 20
5.59
 30
0.0
 11
14.6
 21
5.59
 31
0.0
  0
LINE
  8
0
 62
0
 10
0.0
 20
6.39
 30
0.0
 11
1.4
 21
6.39
 31
0.0
  0
LINE
  8
0
 62
0
 10
14.6
 20
5.59
 30
0.0
 11
14.6
 21
4.59
 31
0.0
  0
LINE
  8
0
 62
0
 10
14.6
 20
4.59
 30
0.0
 11
16.0
 21
4.59
 31
0.0
  0
LINE
  8
0
 62
0
 10
1.4
 20
5.59
 30
0.0
 11
0.0
 21
5.59
 31
0.0
  0
LINE
  8
0
 62
0
 10
1.4
 20
4.59
 30
0.0
 11
1.4
 21
5.59
 31
0.0
  0
LINE
  8
0
 62
0
 10
16.0
 20
3.79
 30
0.0
 11
14.6
 21
3.79
 31
0.0
  0
LINE
  8
0
 62
0
 10
0.0
 20
4.59
 30
0.0
 11
1.4
 21
4.59
 31
0.0
  0
LINE
  8
0
 62
0
 10
14.6
 20
3.79
 30
0.0
 11
14.6
 21
2.79
 31
0.0
  0
LINE
  8
0
 62
0
 10
14.6
 20
2.79
 30
0.0
 11
16.0
 21
2.79
 31
0.0
  0
LINE
  8
0
 62
0
 10
1.4
 20
3.79
 30
0.0
 11
0.0
 21
3.79
 31
0.0
  0
LINE
  8
0
 62
0
 10
1.4
 20
2.79
 30
0.0
 11
1.4
 21
3.79
 31
0.0
  0
LINE
  8
0
 62
0
 10
16.0
 20
1.99
 30
0.0
 11
14.6
 21
1.99
 31
0.0
  0
LINE
  8
0
 62
0
 10
0.0
 20
2.79
 30
0.0
 11
1.4
 21
2.79
 31
0.0
  0
LINE
  8
0
 62
0
 10
14.6
 20
1.99
 30
0.0
 11
14.6
 21
0.99
 31
0.0
  0
LINE
  8
0
 62
0
 10
14.6
 20
0.99
 30
0.0
 11
16.0
 21
0.99
 31
0.0
  0
LINE
  8
0
 62
0
 10
1.4
 20
1.99
 30
0.0
 11
0.0
 21
1.99
 31
0.0
  0
LINE
  8
0
 62
0
 10
1.4
 20
0.99
 30
0.0
 11
1.4
 21
1.99
 31
0.0
  0
LINE
  8
0
 62
0
 10
0.0
 20
0.99
 30
0.0
 11
1.4
 21
0.99
 31
0.0
  0
LINE
  8
0
 62
0
 10
13.0
 20
0.99
 30
0.0
 11
13.0
 21
-0.01
 31
0.0
  0
LINE
  8
0
 62
0
 10
12.0
 20
0.99
 30
0.0
 11
13.0
 21
0.99
 31
0.0
  0
LINE
  8
0
 62
0
 10
12.0
 20
-0.01
 30
0.0
 11
12.0
 21
0.99
 31
0.0
  0
LINE
  8
0
 62
0
 10
3.0
 20
-0.01
 30
0.0
 11
3.0
 21
0.99
 31
0.0
  0
LINE
  8
0
 62
0
 10
3.0
 20
0.99
 30
0.0
 11
4.0
 21
0.99
 31
0.0
  0
LINE
  8
0
 62
0
 10
11.2
 20
0.99
 30
0.0
 11
11.2
 21
-0.01
 31
0.0
  0
LINE
  8
0
 62
0
 10
4.0
 20
0.99
 30
0.0
 11
4.0
 21
-0.01
 31
0.0
  0
LINE
  8
0
 62
0
 10
10.2
 20
0.99
 30
0.0
 11
11.2
 21
0.99
 31
0.0
  0
LINE
  8
0
 62
0
 10
10.2
 20
-0.01
 30
0.0
 11
10.2
 21
0.99
 31
0.0
  0
LINE
  8
0
 62
0
 10
4.8
 20
-0.01
 30
0.0
 11
4.8
 21
0.99
 31
0.0
  0
LINE
  8
0
 62
0
 10
4.8
 20
0.99
 30
0.0
 11
5.8
 21
0.99
 31
0.0
  0
LINE
  8
0
 62
0
 10
9.4
 20
0.99
 30
0.0
 11
9.4
 21
-0.01
 31
0.0
  0
LINE
  8
0
 62
0
 10
5.8
 20
0.99
 30
0.0
 11
5.8
 21
-0.01
 31
0.0
  0
LINE
  8
0
 62
0
 10
8.4
 20
0.99
 30
0.0
 11
9.4
 21
0.99
 31
0.0
  0
LINE
  8
0
 62
0
 10
8.4
 20
-0.01
 30
0.0
 11
8.4
 21
0.99
 31
0.0
  0
LINE
  8
0
 62
0
 10
6.6
 20
-0.01
 30
0.0
 11
6.6
 21
0.99
 31
0.0
  0
LINE
  8
0
 62
0
 10
6.6
 20
0.99
 30
0.0
 11
7.6
 21
0.99
 31
0.0
  0
LINE
  8
0
 62
0
 10
7.6
 20
0.99
 30
0.0
 11
7.6
 21
-0.01
 31
0.0
  0
LINE
  8
0
 62
0
 10
2.3
 20
1.3
 30
0.0
 11
13.7
 21
1.3
 31
0.0
  0
LINE
  8
0
 62
0
 10
14.0
 20
1.6
 30
0.0
 11
14.0
 21
14.9
 31
0.0
  0
LINE
  8
0
 62
0
 10
13.7
 20
15.2
 30
0.0
 11
2.3
 21
15.2
 31
0.0
  0
LINE
  8
0
 62
0
 10
2.0
 20
14.9
 30
0.0
 11
2.0
 21
1.6
 31
0.0
  0
LINE
  8
0
 62
0
 10
5.0
 20
19.0
 30
0.0
 11
4.5
 21
19.0
 31
0.0
  0
LINE
  8
0
 62
0
 10
5.0
 20
23.0
 30
0.0
 11
5.0
 21
19.0
 31
0.0
  0
LINE
  8
0
 62
0
 10
4.5
 20
19.0
 30
0.0
 11
4.5
 21
23.0
 31
0.0
  0
LINE
  8
0
 62
0
 10
6.5
 20
23.0
 30
0.0
 11
5.0
 21
23.0
 31
0.0
  0
LINE
  8
0
 62
0
 10
4.5
 20
23.0
 30
0.0
 11
3.0
 21
23.0
 31
0.0
  0
LINE
  8
0
 62
0
 10
6.5
 20
19.0
 30
0.0
 11
6.5
 21
23.0
 31
0.0
  0
LINE
  8
0
 62
0
 10
3.0
 20
23.0
 30
0.0
 11
3.0
 21
16.5
 31
0.0
  0
LINE
  8
0
 62
0
 10
7.0
 20
19.0
 30
0.0
 11
6.5
 21
19.0
 31
0.0
  0
LINE
  8
0
 62
0
 10
3.0
 20
16.5
 30
0.0
 11
3.0
 21
16.0
 31
0.0
  0
LINE
  8
0
 62
0
 10
7.0
 20
23.0
 30
0.0
 11
7.0
 21
19.0
 31
0.0
  0
LINE
  8
0
 62
0
 10
3.0
 20
16.0
 30
0.0
 11
3.5
 21
16.0
 31
0.0
  0
LINE
  8
0
 62
0
 10
8.5
 20
23.0
 30
0.0
 11
7.0
 21
23.0
 31
0.0
  0
LINE
  8
0
 62
0
 10
3.5
 20
16.0
 30
0.0
 11
10.0
 21
16.0
 31
0.0
  0
LINE
  8
0
 62
0
 10
8.5
 20
19.0
 30
0.0
 11
8.5
 21
23.0
 31
0.0
  0
LINE
  8
0
 62
0
 10
10.0
 20
16.0
 30
0.0
 11
10.0
 21
16.5
 31
0.0
  0
LINE
  8
0
 62
0
 10
9.0
 20
19.0
 30
0.0
 11
8.5
 21
19.0
 31
0.0
  0
LINE
  8
0
 62
0
 10
10.0
 20
16.5
 30
0.0
 11
3.5
 21
16.5
 31
0.0
  0
LINE
  8
0
 62
0
 10
9.0
 20
23.0
 30
0.0
 11
9.0
 21
19.0
 31
0.0
  0
LINE
  8
0
 62
0
 10
3.5
 20
16.5
 30
0.0
 11
3.5
 21
22.5
 31
0.0
  0
LINE
  8
0
 62
0
 10
14.0
 20
23.0
 30
0.0
 11
9.0
 21
23.0
 31
0.0
  0
LINE
  8
0
 62
0
 10
3.5
 20
22.5
 30
0.0
 11
4.0
 21
22.5
 31
0.0
  0
LINE
  8
0
 62
0
 10
14.0
 20
22.5
 30
0.0
 11
14.0
 21
23.0
 31
0.0
  0
LINE
  8
0
 62
0
 10
4.0
 20
22.5
 30
0.0
 11
4.0
 21
18.5
 31
0.0
  0
LINE
  8
0
 62
0
 10
9.5
 20
22.5
 30
0.0
 11
14.0
 21
22.5
 31
0.0
  0
LINE
  8
0
 62
0
 10
4.0
 20
18.5
 30
0.0
 11
5.5
 21
18.5
 31
0.0
  0
LINE
  8
0
 62
0
 10
9.5
 20
18.5
 30
0.0
 11
9.5
 21
22.5
 31
0.0
  0
LINE
  8
0
 62
0
 10
5.5
 20
18.5
 30
0.0
 11
5.5
 21
22.5
 31
0.0
  0
LINE
  8
0
 62
0
 10
8.0
 20
18.5
 30
0.0
 11
9.5
 21
18.5
 31
0.0
  0
LINE
  8
0
 62
0
 10
5.5
 20
22.5
 30
0.0
 11
6.0
 21
22.5
 31
0.0
  0
LINE
  8
0
 62
0
 10
8.0
 20
22.5
 30
0.0
 11
8.0
 21
18.5
 31
0.0
  0
LINE
  8
0
 62
0
 10
6.0
 20
22.5
 30
0.0
 11
6.0
 21
18.5
 31
0.0
  0
LINE
  8
0
 62
0
 10
7.5
 20
22.5
 30
0.0
 11
8.0
 21
22.5
 31
0.0
  0
LINE
  8
0
 62
0
 10
6.0
 20
18.5
 30
0.0
 11
7.5
 21
18.5
 31
0.0
  0
LINE
  8
0
 62
0
 10
7.5
 20
18.5
 30
0.0
 11
7.5
 21
22.5
 31
0.0
  0
LINE
  8
0
 62
0
 10
16.0
 20
14.39
 30
0.0
 11
16.0
 21
14.59
 31
0.0
  0
ARC
  8
0
 62
0
 10
16.0
 20
14.09
 30
0.0
 40
0.3
 50
90.0
 51
-90.0
  0
LINE
  8
0
 62
0
 10
16.0
 20
13.59
 30
0.0
 11
16.0
 21
13.79
 31
0.0
  0
LINE
  8
0
 62
0
 10
0.0
 20
14.59
 30
0.0
 11
0.0
 21
14.39
 31
0.0
  0
LINE
  8
0
 62
0
 10
0.0
 20
13.79
 30
0.0
 11
0.0
 21
13.59
 31
0.0
  0
ARC
  8
0
 62
0
 10
-2.81025203108e-15
 20
14.09
 30
0.0
 40
0.3
 50
-90.0
 51
-0.0
  0
ARC
  8
0
 62
0
 10
-4.65599780952e-15
 20
14.09
 30
0.0
 40
0.3
 50
0.0
 51
90.0
  0
LINE
  8
0
 62
0
 10
16.0
 20
12.59
 30
0.0
 11
16.0
 21
12.79
 31
0.0
  0
ARC
  8
0
 62
0
 10
16.0
 20
12.29
 30
0.0
 40
0.3
 50
90.0
 51
-90.0
  0
LINE
  8
0
 62
0
 10
16.0
 20
11.79
 30
0.0
 11
16.0
 21
11.99
 31
0.0
  0
LINE
  8
0
 62
0
 10
0.0
 20
12.79
 30
0.0
 11
0.0
 21
12.59
 31
0.0
  0
LINE
  8
0
 62
0
 10
0.0
 20
11.99
 30
0.0
 11
0.0
 21
11.79
 31
0.0
  0
ARC
  8
0
 62
0
 10
-2.81025203108e-15
 20
12.29
 30
0.0
 40
0.3
 50
-90.0
 51
-0.0
  0
ARC
  8
0
 62
0
 10
-8.53483950181e-16
 20
12.29
 30
0.0
 40
0.3
 50
-0.0
 51
90.0
  0
LINE
  8
0
 62
0
 10
16.0
 20
10.79
 30
0.0
 11
16.0
 21
10.99
 31
0.0
  0
ARC
  8
0
 62
0
 10
16.0
 20
10.49
 30
0.0
 40
0.3
 50
90.0
 51
-90.0
  0
LINE
  8
0
 62
0
 10
16.0
 20
9.99
 30
0.0
 11
16.0
 21
10.19
 31
0.0
  0
LINE
  8
0
 62
0
 10
0.0
 20
10.99
 30
0.0
 11
0.0
 21
10.79
 31
0.0
  0
LINE
  8
0
 62
0
 10
0.0
 20
10.19
 30
0.0
 11
0.0
 21
9.99
 31
0.0
  0
ARC
  8
0
 62
0
 10
-2.81025203108e-15
 20
10.49
 30
0.0
 40
0.3
 50
-90.0
 51
-0.0
  0
ARC
  8
0
 62
0
 10
-8.53483950181e-16
 20
10.49
 30
0.0
 40
0.3
 50
-0.0
 51
90.0
  0
LINE
  8
0
 62
0
 10
16.0
 20
8.99
 30
0.0
 11
16.0
 21
9.19
 31
0.0
  0
ARC
  8
0
 62
0
 10
16.0
 20
8.69
 30
0.0
 40
0.3
 50
90.0
 51
-90.0
  0
LINE
  8
0
 62
0
 10
16.0
 20
8.19
 30
0.0
 11
16.0
 21
8.39
 31
0.0
  0
LINE
  8
0
 62
0
 10
0.0
 20
9.19
 30
0.0
 11
0.0
 21
8.99
 31
0.0
  0
LINE
  8
0
 62
0
 10
0.0
 20
8.39
 30
0.0
 11
0.0
 21
8.19
 31
0.0
  0
ARC
  8
0
 62
0
 10
-2.81025203108e-15
 20
8.69
 30
0.0
 40
0.3
 50
-90.0
 51
-0.0
  0
ARC
  8
0
 62
0
 10
-8.53483950181e-16
 20
8.69
 30
0.0
 40
0.3
 50
-0.0
 51
90.0
  0
LINE
  8
0
 62
0
 10
16.0
 20
7.19
 30
0.0
 11
16.0
 21
7.39
 31
0.0
  0
ARC
  8
0
 62
0
 10
16.0
 20
6.89
 30
0.0
 40
0.3
 50
90.0
 51
-90.0
  0
LINE
  8
0
 62
0
 10
16.0
 20
6.39
 30
0.0
 11
16.0
 21
6.59
 31
0.0
  0
LINE
  8
0
 62
0
 10
0.0
 20
7.39
 30
0.0
 11
0.0
 21
7.19
 31
0.0
  0
LINE
  8
0
 62
0
 10
0.0
 20
6.59
 30
0.0
 11
0.0
 21
6.39
 31
0.0
  0
ARC
  8
0
 62
0
 10
2.08166817117e-16
 20
6.89
 30
0.0
 40
0.3
 50
-90.0
 51
-0.0
  0
ARC
  8
0
 62
0
 10
-6.24500451352e-17
 20
6.89
 30
0.0
 40
0.3
 50
-0.0
 51
90.0
  0
LINE
  8
0
 62
0
 10
16.0
 20
5.39
 30
0.0
 11
16.0
 21
5.59
 31
0.0
  0
ARC
  8
0
 62
0
 10
16.0
 20
5.09
 30
0.0
 40
0.3
 50
90.0
 51
-90.0
  0
LINE
  8
0
 62
0
 10
16.0
 20
4.59
 30
0.0
 11
16.0
 21
4.79
 31
0.0
  0
LINE
  8
0
 62
0
 10
0.0
 20
5.59
 30
0.0
 11
0.0
 21
5.39
 31
0.0
  0
LINE
  8
0
 62
0
 10
0.0
 20
4.79
 30
0.0
 11
0.0
 21
4.59
 31
0.0
  0
ARC
  8
0
 62
0
 10
2.08166817117e-16
 20
5.09
 30
0.0
 40
0.3
 50
-90.0
 51
-0.0
  0
ARC
  8
0
 62
0
 10
-6.24500451352e-17
 20
5.09
 30
0.0
 40
0.3
 50
-0.0
 51
90.0
  0
LINE
  8
0
 62
0
 10
16.0
 20
3.59
 30
0.0
 11
16.0
 21
3.79
 31
0.0
  0
ARC
  8
0
 62
0
 10
16.0
 20
3.29
 30
0.0
 40
0.3
 50
90.0
 51
-90.0
  0
LINE
  8
0
 62
0
 10
16.0
 20
2.79
 30
0.0
 11
16.0
 21
2.99
 31
0.0
  0
LINE
  8
0
 62
0
 10
0.0
 20
3.79
 30
0.0
 11
0.0
 21
3.59
 31
0.0
  0
LINE
  8
0
 62
0
 10
0.0
 20
2.99
 30
0.0
 11
0.0
 21
2.79
 31
0.0
  0
ARC
  8
0
 62
0
 10
4.09394740331e-16
 20
3.29
 30
0.0
 40
0.3
 50
-90.0
 51
0.0
  0
ARC
  8
0
 62
0
 10
1.38777878078e-17
 20
3.29
 30
0.0
 40
0.3
 50
-0.0
 51
90.0
  0
LINE
  8
0
 62
0
 10
16.0
 20
1.79
 30
0.0
 11
16.0
 21
1.99
 31
0.0
  0
ARC
  8
0
 62
0
 10
16.0
 20
1.49
 30
0.0
 40
0.3
 50
90.0
 51
-90.0
  0
LINE
  8
0
 62
0
 10
16.0
 20
0.99
 30
0.0
 11
16.0
 21
1.19
 31
0.0
  0
LINE
  8
0
 62
0
 10
0.0
 20
1.99
 30
0.0
 11
0.0
 21
1.79
 31
0.0
  0
LINE
  8
0
 62
0
 10
0.0
 20
1.19
 30
0.0
 11
0.0
 21
0.99
 31
0.0
  0
ARC
  8
0
 62
0
 10
-1.04083408559e-16
 20
1.49
 30
0.0
 40
0.3
 50
-90.0
 51
0.0
  0
ARC
  8
0
 62
0
 10
1.38777878078e-17
 20
1.49
 30
0.0
 40
0.3
 50
-0.0
 51
90.0
  0
LINE
  8
0
 62
0
 10
13.0
 20
-0.01
 30
0.0
 11
12.8
 21
-0.01
 31
0.0
  0
LINE
  8
0
 62
0
 10
12.2
 20
-0.01
 30
0.0
 11
12.0
 21
-0.01
 31
0.0
  0
ARC
  8
0
 62
0
 10
12.5
 20
-0.01
 30
0.0
 40
0.3
 50
-180.0
 51
-0.0
  0
LINE
  8
0
 62
0
 10
3.2
 20
-0.01
 30
0.0
 11
3.0
 21
-0.01
 31
0.0
  0
ARC
  8
0
 62
0
 10
3.5
 20
-0.01
 30
0.0
 40
0.3
 50
-180.0
 51
-0.0
  0
LINE
  8
0
 62
0
 10
4.0
 20
-0.01
 30
0.0
 11
3.8
 21
-0.01
 31
0.0
  0
LINE
  8
0
 62
0
 10
11.2
 20
-0.01
 30
0.0
 11
11.0
 21
-0.01
 31
0.0
  0
LINE
  8
0
 62
0
 10
10.4
 20
-0.01
 30
0.0
 11
10.2
 21
-0.01
 31
0.0
  0
ARC
  8
0
 62
0
 10
10.7
 20
-0.01
 30
0.0
 40
0.3
 50
-180.0
 51
-0.0
  0
LINE
  8
0
 62
0
 10
5.0
 20
-0.01
 30
0.0
 11
4.8
 21
-0.01
 31
0.0
  0
ARC
  8
0
 62
0
 10
5.3
 20
-0.01
 30
0.0
 40
0.3
 50
-180.0
 51
-0.0
  0
LINE
  8
0
 62
0
 10
5.8
 20
-0.01
 30
0.0
 11
5.6
 21
-0.01
 31
0.0
  0
LINE
  8
0
 62
0
 10
9.4
 20
-0.01
 30
0.0
 11
9.2
 21
-0.01
 31
0.0
  0
LINE
  8
0
 62
0
 10
8.6
 20
-0.01
 30
0.0
 11
8.4
 21
-0.01
 31
0.0
  0
ARC
  8
0
 62
0
 10
8.9
 20
-0.01
 30
0.0
 40
0.3
 50
-180.0
 51
-0.0
  0
LINE
  8
0
 62
0
 10
6.8
 20
-0.01
 30
0.0
 11
6.6
 21
-0.01
 31
0.0
  0
ARC
  8
0
 62
0
 10
7.1
 20
-0.01
 30
0.0
 40
0.3
 50
-180.0
 51
-0.0
  0
LINE
  8
0
 62
0
 10
7.6
 20
-0.01
 30
0.0
 11
7.4
 21
-0.01
 31
0.0
  0
ARC
  8
0
 62
0
 10
13.7
 20
1.6
 30
0.0
 40
0.3
 50
-90.0
 51
-0.0
  0
ARC
  8
0
 62
0
 10
13.7
 20
14.9
 30
0.0
 40
0.3
 50
0.0
 51
90.0
  0
ARC
  8
0
 62
0
 10
2.3
 20
14.9
 30
0.0
 40
0.3
 50
90.0
 51
180.0
  0
ARC
  8
0
 62
0
 10
2.3
 20
1.6
 30
0.0
 40
0.3
 50
180.0
 51
-90.0
  0
ARC
  8
0
 62
0
 10
13.7
 20
1.6
 30
0.0
 40
0.3
 50
-90.0
 51
-0.0
  0
ARC
  8
0
 62
0
 10
13.7
 20
14.9
 30
0.0
 40
0.3
 50
0.0
 51
90.0
  0
ARC
  8
0
 62
0
 10
2.3
 20
14.9
 30
0.0
 40
0.3
 50
90.0
 51
180.0
  0
ARC
  8
0
 62
0
 10
2.3
 20
1.6
 30
0.0
 40
0.3
 50
180.0
 51
-90.0
  0
LINE
  8
0
 62
0
 10
2.3
 20
1.6
 30
0.0
 11
13.7
 21
1.6
 31
0.0
  0
LINE
  8
0
 62
0
 10
13.7
 20
1.6
 30
0.0
 11
13.7
 21
14.9
 31
0.0
  0
LINE
  8
0
 62
0
 10
13.7
 20
14.9
 30
0.0
 11
2.3
 21
14.9
 31
0.0
  0
LINE
  8
0
 62
0
 10
2.3
 20
14.9
 30
0.0
 11
2.3
 21
1.6
 31
0.0
  0
ENDBLK
  0
ENDSEC
  0
SECTION
  2
ENTITIES
  0
INSERT
  2
FUSION005
  8
0
 10
0.0
 20
0.0
 30
0.0
  0
ENDSEC
  0
EOF
