  0
SECTION
  2
HEADER
  9
$ACADVER
  1
AC1009
  9
$INSBASE
 10
0.0
 20
0.0
 30
0.0
  9
$EXTMIN
 10
0.0
 20
0.0
 30
0.0
  9
$EXTMAX
 10
0.0
 20
0.0
 30
0.0
  0
ENDSEC
  0
SECTION
  2
TABLES
  0
TABLE
  2
VPORT
 70
0
  0
ENDTAB
  0
TABLE
  2
LTYPE
 70
1
  0
LTYPE
  2
CONTINUOUS
 70
0
  3
Solid line
 72
65
 73
0
 40
0.0
  0
ENDTAB
  0
TABLE
  2
LAYER
 70
1
  0
LAYER
  2
0
 70
64
 62
7
  6
continuous
  0
ENDTAB
  0
TABLE
  2
STYLE
 70
1
  0
STYLE
  2
STANDARD
 70
0
 40
0
 41
1.0
 50
0.0
 71
0
 42
1
 3
ARIAL.TTF
 4

  0
ENDTAB
  0
TABLE
  2
VIEW
 70
0
  0
ENDTAB
  0
ENDSEC
  0
SECTION
  2
BLOCKS
  0
BLOCK
  8
0
  2
FUSION002
 70
0
 10
0.0
 20
0.0
 30
0.0
  3
FUSION002
  0
POLYLINE
  8
0
 62
0
 70
0
 66
1
 10
0.0
 20
0.0
 30
0.0
  0
VERTEX
  8
0
 10
11.0194171897
 20
1.75636993415
 30
0.0
  0
VERTEX
  8
0
 10
11.0194171897
 20
1.70636993415
 30
0.0
  0
VERTEX
  8
0
 10
11.0194171897
 20
1.65636993415
 30
0.0
  0
VERTEX
  8
0
 10
11.0194171897
 20
1.60636993415
 30
0.0
  0
VERTEX
  8
0
 10
11.0194171897
 20
1.55636993415
 30
0.0
  0
VERTEX
  8
0
 10
11.0194171897
 20
1.50636993415
 30
0.0
  0
VERTEX
  8
0
 10
11.0194171897
 20
1.45636993415
 30
0.0
  0
VERTEX
  8
0
 10
11.0194171897
 20
1.40636993415
 30
0.0
  0
VERTEX
  8
0
 10
11.0194171897
 20
1.35636993415
 30
0.0
  0
VERTEX
  8
0
 10
11.0194171897
 20
1.30636993415
 30
0.0
  0
VERTEX
  8
0
 10
11.0194171897
 20
1.25636993415
 30
0.0
  0
VERTEX
  8
0
 10
11.0194171897
 20
1.20636993415
 30
0.0
  0
VERTEX
  8
0
 10
11.0194171897
 20
1.15636993415
 30
0.0
  0
VERTEX
  8
0
 10
11.0194171897
 20
1.10636993415
 30
0.0
  0
VERTEX
  8
0
 10
11.0194171897
 20
1.05636993415
 30
0.0
  0
VERTEX
  8
0
 10
11.0194171897
 20
1.00636993415
 30
0.0
  0
VERTEX
  8
0
 10
11.0194171897
 20
0.956369934147
 30
0.0
  0
VERTEX
  8
0
 10
11.0194171897
 20
0.906369934147
 30
0.0
  0
VERTEX
  8
0
 10
11.0194171897
 20
0.856369934147
 30
0.0
  0
VERTEX
  8
0
 10
11.0194171897
 20
0.806369934147
 30
0.0
  0
VERTEX
  8
0
 10
11.0194171897
 20
0.756369934147
 30
0.0
  0
VERTEX
  8
0
 10
11.0194171897
 20
0.712739868294
 30
0.0
  0
SEQEND
  8
0
  0
POLYLINE
  8
0
 62
0
 70
0
 66
1
 10
0.0
 20
0.0
 30
0.0
  0
VERTEX
  8
0
 10
10.2694171897
 20
1.75636993415
 30
0.0
  0
VERTEX
  8
0
 10
10.2694171897
 20
1.70636993415
 30
0.0
  0
VERTEX
  8
0
 10
10.2694171897
 20
1.65636993415
 30
0.0
  0
VERTEX
  8
0
 10
10.2694171897
 20
1.60636993415
 30
0.0
  0
VERTEX
  8
0
 10
10.2694171897
 20
1.55636993415
 30
0.0
  0
VERTEX
  8
0
 10
10.2694171897
 20
1.50636993415
 30
0.0
  0
VERTEX
  8
0
 10
10.2694171897
 20
1.45636993415
 30
0.0
  0
VERTEX
  8
0
 10
10.2694171897
 20
1.40636993415
 30
0.0
  0
VERTEX
  8
0
 10
10.2694171897
 20
1.35636993415
 30
0.0
  0
VERTEX
  8
0
 10
10.2694171897
 20
1.30636993415
 30
0.0
  0
VERTEX
  8
0
 10
10.2694171897
 20
1.25636993415
 30
0.0
  0
VERTEX
  8
0
 10
10.2694171897
 20
1.20636993415
 30
0.0
  0
VERTEX
  8
0
 10
10.2694171897
 20
1.15636993415
 30
0.0
  0
VERTEX
  8
0
 10
10.2694171897
 20
1.10636993415
 30
0.0
  0
VERTEX
  8
0
 10
10.2694171897
 20
1.05636993415
 30
0.0
  0
VERTEX
  8
0
 10
10.2694171897
 20
1.00636993415
 30
0.0
  0
VERTEX
  8
0
 10
10.2694171897
 20
0.956369934147
 30
0.0
  0
VERTEX
  8
0
 10
10.2694171897
 20
0.906369934147
 30
0.0
  0
VERTEX
  8
0
 10
10.2694171897
 20
0.856369934147
 30
0.0
  0
VERTEX
  8
0
 10
10.2694171897
 20
0.806369934147
 30
0.0
  0
VERTEX
  8
0
 10
10.2694171897
 20
0.756369934147
 30
0.0
  0
VERTEX
  8
0
 10
10.2694171897
 20
0.712739868294
 30
0.0
  0
SEQEND
  8
0
  0
POLYLINE
  8
0
 62
0
 70
0
 66
1
 10
0.0
 20
0.0
 30
0.0
  0
VERTEX
  8
0
 10
10.2694171897
 20
3.00561199147
 30
0.0
  0
VERTEX
  8
0
 10
10.3193986485
 20
3.00443304362
 30
0.0
  0
VERTEX
  8
0
 10
10.3692683141
 20
3.00089095847
 30
0.0
  0
VERTEX
  8
0
 10
10.4189116348
 20
2.99496999034
 30
0.0
  0
VERTEX
  8
0
 10
10.4682084144
 20
2.9866438366
 30
0.0
  0
VERTEX
  8
0
 10
10.5170296617
 20
2.97587558497
 30
0.0
  0
VERTEX
  8
0
 10
10.5652340316
 20
2.96261772207
 30
0.0
  0
VERTEX
  8
0
 10
10.6126636911
 20
2.94681230718
 30
0.0
  0
VERTEX
  8
0
 10
10.6591394341
 20
2.92839147965
 30
0.0
  0
VERTEX
  8
0
 10
10.7044548541
 20
2.90727856678
 30
0.0
  0
VERTEX
  8
0
 10
10.748369409
 20
2.88339020718
 30
0.0
  0
VERTEX
  8
0
 10
10.7906002905
 20
2.85664012
 30
0.0
  0
VERTEX
  8
0
 10
10.8308132243
 20
2.82694544676
 30
0.0
  0
VERTEX
  8
0
 10
10.8686127769
 20
2.79423695592
 30
0.0
  0
VERTEX
  8
0
 10
10.9035336096
 20
2.75847474272
 30
0.0
  0
VERTEX
  8
0
 10
10.935035569
 20
2.71967111678
 30
0.0
  0
VERTEX
  8
0
 10
10.9625076015
 20
2.67792158709
 30
0.0
  0
VERTEX
  8
0
 10
10.9852876866
 20
2.63344231725
 30
0.0
  0
VERTEX
  8
0
 10
11.002706566
 20
2.58660730822
 30
0.0
  0
VERTEX
  8
0
 10
11.014158761
 20
2.53797158571
 30
0.0
  0
VERTEX
  8
0
 10
11.0191925045
 20
2.48826222385
 30
0.0
  0
VERTEX
  8
0
 10
11.0194171897
 20
2.47528190558
 30
0.0
  0
SEQEND
  8
0
  0
POLYLINE
  8
0
 62
0
 70
0
 66
1
 10
0.0
 20
0.0
 30
0.0
  0
VERTEX
  8
0
 10
11.0194171897
 20
2.26314987122
 30
0.0
  0
VERTEX
  8
0
 10
11.0160961057
 20
2.31300263623
 30
0.0
  0
VERTEX
  8
0
 10
11.0062754038
 20
2.3619931117
 30
0.0
  0
VERTEX
  8
0
 10
10.9903521798
 20
2.40935647161
 30
0.0
  0
VERTEX
  8
0
 10
10.9689009676
 20
2.45449046343
 30
0.0
  0
VERTEX
  8
0
 10
10.9425823283
 20
2.49697533621
 30
0.0
  0
VERTEX
  8
0
 10
10.9120654697
 20
2.53655724873
 30
0.0
  0
VERTEX
  8
0
 10
10.8779774292
 20
2.57311312299
 30
0.0
  0
VERTEX
  8
0
 10
10.8408776513
 20
2.6066123443
 30
0.0
  0
VERTEX
  8
0
 10
10.801250679
 20
2.63708378229
 30
0.0
  0
VERTEX
  8
0
 10
10.7595093459
 20
2.6645908248
 30
0.0
  0
VERTEX
  8
0
 10
10.7160028792
 20
2.68921396378
 30
0.0
  0
VERTEX
  8
0
 10
10.6710265314
 20
2.71103933118
 30
0.0
  0
VERTEX
  8
0
 10
10.62483099
 20
2.73015149359
 30
0.0
  0
VERTEX
  8
0
 10
10.5776308106
 20
2.74662911789
 30
0.0
  0
VERTEX
  8
0
 10
10.5296116601
 20
2.76054249159
 30
0.0
  0
VERTEX
  8
0
 10
10.4809364166
 20
2.77195219857
 30
0.0
  0
VERTEX
  8
0
 10
10.4317502824
 20
2.78090848632
 30
0.0
  0
VERTEX
  8
0
 10
10.382185094
 20
2.78745102503
 30
0.0
  0
VERTEX
  8
0
 10
10.3323630147
 20
2.79160886827
 30
0.0
  0
VERTEX
  8
0
 10
10.2823997763
 20
2.79340049708
 30
0.0
  0
VERTEX
  8
0
 10
10.2694171897
 20
2.79347995711
 30
0.0
  0
SEQEND
  8
0
  0
POLYLINE
  8
0
 62
0
 70
1
 66
1
 10
0.0
 20
0.0
 30
0.0
  0
VERTEX
  8
0
 10
4.4394171897
 20
2.09438048458
 30
0.0
  0
VERTEX
  8
0
 10
4.4394171897
 20
2.04438048458
 30
0.0
  0
VERTEX
  8
0
 10
4.4394171897
 20
1.99438048458
 30
0.0
  0
VERTEX
  8
0
 10
4.4394171897
 20
1.94438048458
 30
0.0
  0
VERTEX
  8
0
 10
4.4394171897
 20
1.89438048458
 30
0.0
  0
SEQEND
  8
0
  0
POLYLINE
  8
0
 62
0
 70
1
 66
1
 10
0.0
 20
0.0
 30
0.0
  0
VERTEX
  8
0
 10
4.4394171897
 20
2.8
 30
0.0
  0
SEQEND
  8
0
  0
POLYLINE
  8
0
 62
0
 70
1
 66
1
 10
0.0
 20
0.0
 30
0.0
  0
VERTEX
  8
0
 10
4.4394171897
 20
3.0
 30
0.0
  0
VERTEX
  8
0
 10
4.4394171897
 20
2.95
 30
0.0
  0
VERTEX
  8
0
 10
4.4394171897
 20
2.9
 30
0.0
  0
SEQEND
  8
0
  0
POLYLINE
  8
0
 62
0
 70
0
 66
1
 10
0.0
 20
0.0
 30
0.0
  0
VERTEX
  8
0
 10
4.4394171897
 20
1.86006590953
 30
0.0
  0
VERTEX
  8
0
 10
4.4394171897
 20
1.81006590953
 30
0.0
  0
VERTEX
  8
0
 10
4.4394171897
 20
1.76006590953
 30
0.0
  0
VERTEX
  8
0
 10
4.4394171897
 20
1.71006590953
 30
0.0
  0
VERTEX
  8
0
 10
4.4394171897
 20
1.66006590953
 30
0.0
  0
VERTEX
  8
0
 10
4.4394171897
 20
1.61006590953
 30
0.0
  0
VERTEX
  8
0
 10
4.4394171897
 20
1.56006590953
 30
0.0
  0
VERTEX
  8
0
 10
4.4394171897
 20
1.51006590953
 30
0.0
  0
VERTEX
  8
0
 10
4.4394171897
 20
1.46006590953
 30
0.0
  0
VERTEX
  8
0
 10
4.4394171897
 20
1.41006590953
 30
0.0
  0
VERTEX
  8
0
 10
4.4394171897
 20
1.36006590953
 30
0.0
  0
VERTEX
  8
0
 10
4.4394171897
 20
1.31006590953
 30
0.0
  0
VERTEX
  8
0
 10
4.4394171897
 20
1.26006590953
 30
0.0
  0
VERTEX
  8
0
 10
4.4394171897
 20
1.21006590953
 30
0.0
  0
VERTEX
  8
0
 10
4.4394171897
 20
1.16006590953
 30
0.0
  0
VERTEX
  8
0
 10
4.4394171897
 20
1.11006590953
 30
0.0
  0
VERTEX
  8
0
 10
4.4394171897
 20
1.06006590953
 30
0.0
  0
VERTEX
  8
0
 10
4.4394171897
 20
1.01006590953
 30
0.0
  0
VERTEX
  8
0
 10
4.4394171897
 20
0.960065909527
 30
0.0
  0
VERTEX
  8
0
 10
4.4394171897
 20
0.910065909527
 30
0.0
  0
VERTEX
  8
0
 10
4.4394171897
 20
0.860065909527
 30
0.0
  0
VERTEX
  8
0
 10
4.4394171897
 20
0.810065909527
 30
0.0
  0
VERTEX
  8
0
 10
4.4394171897
 20
0.760065909527
 30
0.0
  0
VERTEX
  8
0
 10
4.4394171897
 20
0.710065909527
 30
0.0
  0
VERTEX
  8
0
 10
4.4394171897
 20
0.660065909527
 30
0.0
  0
VERTEX
  8
0
 10
4.4394171897
 20
0.610065909527
 30
0.0
  0
VERTEX
  8
0
 10
4.4394171897
 20
0.560065909527
 30
0.0
  0
VERTEX
  8
0
 10
4.4394171897
 20
0.510065909527
 30
0.0
  0
VERTEX
  8
0
 10
4.4394171897
 20
0.460065909527
 30
0.0
  0
VERTEX
  8
0
 10
4.4394171897
 20
0.410065909527
 30
0.0
  0
VERTEX
  8
0
 10
4.4394171897
 20
0.360065909527
 30
0.0
  0
VERTEX
  8
0
 10
4.4394171897
 20
0.310065909527
 30
0.0
  0
VERTEX
  8
0
 10
4.4394171897
 20
0.260065909527
 30
0.0
  0
VERTEX
  8
0
 10
4.4394171897
 20
0.210065909527
 30
0.0
  0
VERTEX
  8
0
 10
4.4394171897
 20
0.160065909527
 30
0.0
  0
VERTEX
  8
0
 10
4.4394171897
 20
0.110065909527
 30
0.0
  0
VERTEX
  8
0
 10
4.4394171897
 20
0.0600659095274
 30
0.0
  0
VERTEX
  8
0
 10
4.4394171897
 20
0.0100659095274
 30
0.0
  0
VERTEX
  8
0
 10
4.4394171897
 20
-0.0399340904726
 30
0.0
  0
VERTEX
  8
0
 10
4.4394171897
 20
-0.0899340904726
 30
0.0
  0
VERTEX
  8
0
 10
4.4394171897
 20
-0.139934090473
 30
0.0
  0
VERTEX
  8
0
 10
4.4394171897
 20
-0.189934090473
 30
0.0
  0
VERTEX
  8
0
 10
4.4394171897
 20
-0.239934090473
 30
0.0
  0
VERTEX
  8
0
 10
4.4394171897
 20
-0.289934090473
 30
0.0
  0
VERTEX
  8
0
 10
4.4394171897
 20
-0.339934090473
 30
0.0
  0
VERTEX
  8
0
 10
4.4394171897
 20
-0.389934090473
 30
0.0
  0
VERTEX
  8
0
 10
4.4394171897
 20
-0.439934090473
 30
0.0
  0
VERTEX
  8
0
 10
4.4394171897
 20
-0.489934090473
 30
0.0
  0
VERTEX
  8
0
 10
4.4394171897
 20
-0.539934090473
 30
0.0
  0
VERTEX
  8
0
 10
4.4394171897
 20
-0.589934090473
 30
0.0
  0
VERTEX
  8
0
 10
4.4394171897
 20
-0.639934090473
 30
0.0
  0
VERTEX
  8
0
 10
4.4394171897
 20
-0.689934090473
 30
0.0
  0
VERTEX
  8
0
 10
4.4394171897
 20
-0.739934090473
 30
0.0
  0
VERTEX
  8
0
 10
4.4394171897
 20
-0.789934090473
 30
0.0
  0
VERTEX
  8
0
 10
4.4394171897
 20
-0.839934090473
 30
0.0
  0
VERTEX
  8
0
 10
4.4394171897
 20
-0.889934090473
 30
0.0
  0
VERTEX
  8
0
 10
4.4394171897
 20
-0.939934090473
 30
0.0
  0
VERTEX
  8
0
 10
4.4394171897
 20
-0.989934090473
 30
0.0
  0
VERTEX
  8
0
 10
4.4394171897
 20
-1.03993409047
 30
0.0
  0
VERTEX
  8
0
 10
4.4394171897
 20
-1.08993409047
 30
0.0
  0
VERTEX
  8
0
 10
4.4394171897
 20
-1.13993409047
 30
0.0
  0
VERTEX
  8
0
 10
4.4394171897
 20
-1.18993409047
 30
0.0
  0
VERTEX
  8
0
 10
4.4394171897
 20
-1.23993409047
 30
0.0
  0
VERTEX
  8
0
 10
4.4394171897
 20
-1.28993409047
 30
0.0
  0
VERTEX
  8
0
 10
4.4394171897
 20
-1.33993409047
 30
0.0
  0
VERTEX
  8
0
 10
4.4394171897
 20
-1.38993409047
 30
0.0
  0
VERTEX
  8
0
 10
4.4394171897
 20
-1.43993409047
 30
0.0
  0
VERTEX
  8
0
 10
4.4394171897
 20
-1.48993409047
 30
0.0
  0
VERTEX
  8
0
 10
4.4394171897
 20
-1.53993409047
 30
0.0
  0
VERTEX
  8
0
 10
4.4394171897
 20
-1.58993409047
 30
0.0
  0
VERTEX
  8
0
 10
4.4394171897
 20
-1.63993409047
 30
0.0
  0
VERTEX
  8
0
 10
4.4394171897
 20
-1.68993409047
 30
0.0
  0
VERTEX
  8
0
 10
4.4394171897
 20
-1.73993409047
 30
0.0
  0
VERTEX
  8
0
 10
4.4394171897
 20
-1.78993409047
 30
0.0
  0
VERTEX
  8
0
 10
4.4394171897
 20
-1.83993409047
 30
0.0
  0
VERTEX
  8
0
 10
4.4394171897
 20
-1.88993409047
 30
0.0
  0
VERTEX
  8
0
 10
4.4394171897
 20
-1.93993409047
 30
0.0
  0
VERTEX
  8
0
 10
4.4394171897
 20
-1.98993409047
 30
0.0
  0
VERTEX
  8
0
 10
4.4394171897
 20
-2.01520144661
 30
0.0
  0
SEQEND
  8
0
  0
POLYLINE
  8
0
 62
0
 70
0
 66
1
 10
0.0
 20
0.0
 30
0.0
  0
VERTEX
  8
0
 10
4.4394171897
 20
1.86006590953
 30
0.0
  0
VERTEX
  8
0
 10
4.4394171897
 20
1.81006590953
 30
0.0
  0
VERTEX
  8
0
 10
4.4394171897
 20
1.76006590953
 30
0.0
  0
VERTEX
  8
0
 10
4.4394171897
 20
1.71006590953
 30
0.0
  0
VERTEX
  8
0
 10
4.4394171897
 20
1.66006590953
 30
0.0
  0
VERTEX
  8
0
 10
4.4394171897
 20
1.61006590953
 30
0.0
  0
VERTEX
  8
0
 10
4.4394171897
 20
1.56006590953
 30
0.0
  0
VERTEX
  8
0
 10
4.4394171897
 20
1.51006590953
 30
0.0
  0
VERTEX
  8
0
 10
4.4394171897
 20
1.46006590953
 30
0.0
  0
VERTEX
  8
0
 10
4.4394171897
 20
1.41006590953
 30
0.0
  0
VERTEX
  8
0
 10
4.4394171897
 20
1.36006590953
 30
0.0
  0
VERTEX
  8
0
 10
4.4394171897
 20
1.31006590953
 30
0.0
  0
VERTEX
  8
0
 10
4.4394171897
 20
1.26006590953
 30
0.0
  0
VERTEX
  8
0
 10
4.4394171897
 20
1.21006590953
 30
0.0
  0
VERTEX
  8
0
 10
4.4394171897
 20
1.16006590953
 30
0.0
  0
VERTEX
  8
0
 10
4.4394171897
 20
1.11006590953
 30
0.0
  0
VERTEX
  8
0
 10
4.4394171897
 20
1.06006590953
 30
0.0
  0
VERTEX
  8
0
 10
4.4394171897
 20
1.01006590953
 30
0.0
  0
VERTEX
  8
0
 10
4.4394171897
 20
0.960065909527
 30
0.0
  0
VERTEX
  8
0
 10
4.4394171897
 20
0.910065909527
 30
0.0
  0
VERTEX
  8
0
 10
4.4394171897
 20
0.860065909527
 30
0.0
  0
VERTEX
  8
0
 10
4.4394171897
 20
0.810065909527
 30
0.0
  0
VERTEX
  8
0
 10
4.4394171897
 20
0.760065909527
 30
0.0
  0
VERTEX
  8
0
 10
4.4394171897
 20
0.710065909527
 30
0.0
  0
VERTEX
  8
0
 10
4.4394171897
 20
0.660065909527
 30
0.0
  0
VERTEX
  8
0
 10
4.4394171897
 20
0.610065909527
 30
0.0
  0
VERTEX
  8
0
 10
4.4394171897
 20
0.560065909527
 30
0.0
  0
VERTEX
  8
0
 10
4.4394171897
 20
0.510065909527
 30
0.0
  0
VERTEX
  8
0
 10
4.4394171897
 20
0.460065909527
 30
0.0
  0
VERTEX
  8
0
 10
4.4394171897
 20
0.410065909527
 30
0.0
  0
VERTEX
  8
0
 10
4.4394171897
 20
0.360065909527
 30
0.0
  0
VERTEX
  8
0
 10
4.4394171897
 20
0.310065909527
 30
0.0
  0
VERTEX
  8
0
 10
4.4394171897
 20
0.260065909527
 30
0.0
  0
VERTEX
  8
0
 10
4.4394171897
 20
0.210065909527
 30
0.0
  0
VERTEX
  8
0
 10
4.4394171897
 20
0.160065909527
 30
0.0
  0
VERTEX
  8
0
 10
4.4394171897
 20
0.110065909527
 30
0.0
  0
VERTEX
  8
0
 10
4.4394171897
 20
0.0600659095274
 30
0.0
  0
VERTEX
  8
0
 10
4.4394171897
 20
0.0100659095274
 30
0.0
  0
VERTEX
  8
0
 10
4.4394171897
 20
-0.0399340904726
 30
0.0
  0
VERTEX
  8
0
 10
4.4394171897
 20
-0.0899340904726
 30
0.0
  0
VERTEX
  8
0
 10
4.4394171897
 20
-0.139934090473
 30
0.0
  0
VERTEX
  8
0
 10
4.4394171897
 20
-0.189934090473
 30
0.0
  0
VERTEX
  8
0
 10
4.4394171897
 20
-0.239934090473
 30
0.0
  0
VERTEX
  8
0
 10
4.4394171897
 20
-0.289934090473
 30
0.0
  0
VERTEX
  8
0
 10
4.4394171897
 20
-0.339934090473
 30
0.0
  0
VERTEX
  8
0
 10
4.4394171897
 20
-0.389934090473
 30
0.0
  0
VERTEX
  8
0
 10
4.4394171897
 20
-0.439934090473
 30
0.0
  0
VERTEX
  8
0
 10
4.4394171897
 20
-0.489934090473
 30
0.0
  0
VERTEX
  8
0
 10
4.4394171897
 20
-0.539934090473
 30
0.0
  0
VERTEX
  8
0
 10
4.4394171897
 20
-0.589934090473
 30
0.0
  0
VERTEX
  8
0
 10
4.4394171897
 20
-0.639934090473
 30
0.0
  0
VERTEX
  8
0
 10
4.4394171897
 20
-0.689934090473
 30
0.0
  0
VERTEX
  8
0
 10
4.4394171897
 20
-0.739934090473
 30
0.0
  0
VERTEX
  8
0
 10
4.4394171897
 20
-0.789934090473
 30
0.0
  0
VERTEX
  8
0
 10
4.4394171897
 20
-0.839934090473
 30
0.0
  0
VERTEX
  8
0
 10
4.4394171897
 20
-0.889934090473
 30
0.0
  0
VERTEX
  8
0
 10
4.4394171897
 20
-0.939934090473
 30
0.0
  0
VERTEX
  8
0
 10
4.4394171897
 20
-0.989934090473
 30
0.0
  0
VERTEX
  8
0
 10
4.4394171897
 20
-1.03993409047
 30
0.0
  0
VERTEX
  8
0
 10
4.4394171897
 20
-1.08993409047
 30
0.0
  0
VERTEX
  8
0
 10
4.4394171897
 20
-1.13993409047
 30
0.0
  0
VERTEX
  8
0
 10
4.4394171897
 20
-1.18993409047
 30
0.0
  0
VERTEX
  8
0
 10
4.4394171897
 20
-1.23993409047
 30
0.0
  0
VERTEX
  8
0
 10
4.4394171897
 20
-1.28993409047
 30
0.0
  0
VERTEX
  8
0
 10
4.4394171897
 20
-1.33993409047
 30
0.0
  0
VERTEX
  8
0
 10
4.4394171897
 20
-1.38993409047
 30
0.0
  0
VERTEX
  8
0
 10
4.4394171897
 20
-1.43993409047
 30
0.0
  0
VERTEX
  8
0
 10
4.4394171897
 20
-1.48993409047
 30
0.0
  0
VERTEX
  8
0
 10
4.4394171897
 20
-1.53993409047
 30
0.0
  0
VERTEX
  8
0
 10
4.4394171897
 20
-1.58993409047
 30
0.0
  0
VERTEX
  8
0
 10
4.4394171897
 20
-1.63993409047
 30
0.0
  0
VERTEX
  8
0
 10
4.4394171897
 20
-1.68993409047
 30
0.0
  0
VERTEX
  8
0
 10
4.4394171897
 20
-1.73993409047
 30
0.0
  0
VERTEX
  8
0
 10
4.4394171897
 20
-1.78993409047
 30
0.0
  0
VERTEX
  8
0
 10
4.4394171897
 20
-1.83993409047
 30
0.0
  0
VERTEX
  8
0
 10
4.4394171897
 20
-1.88993409047
 30
0.0
  0
VERTEX
  8
0
 10
4.4394171897
 20
-1.93993409047
 30
0.0
  0
VERTEX
  8
0
 10
4.4394171897
 20
-1.98993409047
 30
0.0
  0
VERTEX
  8
0
 10
4.4394171897
 20
-2.03993409047
 30
0.0
  0
VERTEX
  8
0
 10
4.4394171897
 20
-2.08993409047
 30
0.0
  0
VERTEX
  8
0
 10
4.4394171897
 20
-2.09438048458
 30
0.0
  0
SEQEND
  8
0
  0
POLYLINE
  8
0
 62
0
 70
0
 66
1
 10
0.0
 20
0.0
 30
0.0
  0
VERTEX
  8
0
 10
9.4394171897
 20
1.86006590953
 30
0.0
  0
VERTEX
  8
0
 10
9.4394171897
 20
1.81006590953
 30
0.0
  0
VERTEX
  8
0
 10
9.4394171897
 20
1.76006590953
 30
0.0
  0
VERTEX
  8
0
 10
9.4394171897
 20
1.71006590953
 30
0.0
  0
VERTEX
  8
0
 10
9.4394171897
 20
1.66006590953
 30
0.0
  0
VERTEX
  8
0
 10
9.4394171897
 20
1.61006590953
 30
0.0
  0
VERTEX
  8
0
 10
9.4394171897
 20
1.56006590953
 30
0.0
  0
VERTEX
  8
0
 10
9.4394171897
 20
1.51006590953
 30
0.0
  0
VERTEX
  8
0
 10
9.4394171897
 20
1.46006590953
 30
0.0
  0
VERTEX
  8
0
 10
9.4394171897
 20
1.41006590953
 30
0.0
  0
VERTEX
  8
0
 10
9.4394171897
 20
1.36006590953
 30
0.0
  0
VERTEX
  8
0
 10
9.4394171897
 20
1.31006590953
 30
0.0
  0
VERTEX
  8
0
 10
9.4394171897
 20
1.26006590953
 30
0.0
  0
VERTEX
  8
0
 10
9.4394171897
 20
1.21006590953
 30
0.0
  0
VERTEX
  8
0
 10
9.4394171897
 20
1.16006590953
 30
0.0
  0
VERTEX
  8
0
 10
9.4394171897
 20
1.11006590953
 30
0.0
  0
VERTEX
  8
0
 10
9.4394171897
 20
1.06006590953
 30
0.0
  0
VERTEX
  8
0
 10
9.4394171897
 20
1.01006590953
 30
0.0
  0
VERTEX
  8
0
 10
9.4394171897
 20
0.960065909527
 30
0.0
  0
VERTEX
  8
0
 10
9.4394171897
 20
0.910065909527
 30
0.0
  0
VERTEX
  8
0
 10
9.4394171897
 20
0.860065909527
 30
0.0
  0
VERTEX
  8
0
 10
9.4394171897
 20
0.810065909527
 30
0.0
  0
VERTEX
  8
0
 10
9.4394171897
 20
0.760065909527
 30
0.0
  0
VERTEX
  8
0
 10
9.4394171897
 20
0.710065909527
 30
0.0
  0
VERTEX
  8
0
 10
9.4394171897
 20
0.660065909527
 30
0.0
  0
VERTEX
  8
0
 10
9.4394171897
 20
0.610065909527
 30
0.0
  0
VERTEX
  8
0
 10
9.4394171897
 20
0.560065909527
 30
0.0
  0
VERTEX
  8
0
 10
9.4394171897
 20
0.510065909527
 30
0.0
  0
VERTEX
  8
0
 10
9.4394171897
 20
0.460065909527
 30
0.0
  0
VERTEX
  8
0
 10
9.4394171897
 20
0.410065909527
 30
0.0
  0
VERTEX
  8
0
 10
9.4394171897
 20
0.360065909527
 30
0.0
  0
VERTEX
  8
0
 10
9.4394171897
 20
0.310065909527
 30
0.0
  0
VERTEX
  8
0
 10
9.4394171897
 20
0.260065909527
 30
0.0
  0
VERTEX
  8
0
 10
9.4394171897
 20
0.210065909527
 30
0.0
  0
VERTEX
  8
0
 10
9.4394171897
 20
0.160065909527
 30
0.0
  0
VERTEX
  8
0
 10
9.4394171897
 20
0.110065909527
 30
0.0
  0
VERTEX
  8
0
 10
9.4394171897
 20
0.0600659095274
 30
0.0
  0
VERTEX
  8
0
 10
9.4394171897
 20
0.0100659095274
 30
0.0
  0
VERTEX
  8
0
 10
9.4394171897
 20
-0.0399340904726
 30
0.0
  0
VERTEX
  8
0
 10
9.4394171897
 20
-0.0899340904726
 30
0.0
  0
VERTEX
  8
0
 10
9.4394171897
 20
-0.139934090473
 30
0.0
  0
VERTEX
  8
0
 10
9.4394171897
 20
-0.189934090473
 30
0.0
  0
VERTEX
  8
0
 10
9.4394171897
 20
-0.239934090473
 30
0.0
  0
VERTEX
  8
0
 10
9.4394171897
 20
-0.289934090473
 30
0.0
  0
VERTEX
  8
0
 10
9.4394171897
 20
-0.339934090473
 30
0.0
  0
VERTEX
  8
0
 10
9.4394171897
 20
-0.389934090473
 30
0.0
  0
VERTEX
  8
0
 10
9.4394171897
 20
-0.439934090473
 30
0.0
  0
VERTEX
  8
0
 10
9.4394171897
 20
-0.489934090473
 30
0.0
  0
VERTEX
  8
0
 10
9.4394171897
 20
-0.539934090473
 30
0.0
  0
VERTEX
  8
0
 10
9.4394171897
 20
-0.589934090473
 30
0.0
  0
VERTEX
  8
0
 10
9.4394171897
 20
-0.639934090473
 30
0.0
  0
VERTEX
  8
0
 10
9.4394171897
 20
-0.689934090473
 30
0.0
  0
VERTEX
  8
0
 10
9.4394171897
 20
-0.739934090473
 30
0.0
  0
VERTEX
  8
0
 10
9.4394171897
 20
-0.789934090473
 30
0.0
  0
VERTEX
  8
0
 10
9.4394171897
 20
-0.839934090473
 30
0.0
  0
VERTEX
  8
0
 10
9.4394171897
 20
-0.889934090473
 30
0.0
  0
VERTEX
  8
0
 10
9.4394171897
 20
-0.939934090473
 30
0.0
  0
VERTEX
  8
0
 10
9.4394171897
 20
-0.989934090473
 30
0.0
  0
VERTEX
  8
0
 10
9.4394171897
 20
-1.03993409047
 30
0.0
  0
VERTEX
  8
0
 10
9.4394171897
 20
-1.08993409047
 30
0.0
  0
VERTEX
  8
0
 10
9.4394171897
 20
-1.13993409047
 30
0.0
  0
VERTEX
  8
0
 10
9.4394171897
 20
-1.18993409047
 30
0.0
  0
VERTEX
  8
0
 10
9.4394171897
 20
-1.23993409047
 30
0.0
  0
VERTEX
  8
0
 10
9.4394171897
 20
-1.28993409047
 30
0.0
  0
VERTEX
  8
0
 10
9.4394171897
 20
-1.33993409047
 30
0.0
  0
VERTEX
  8
0
 10
9.4394171897
 20
-1.38993409047
 30
0.0
  0
VERTEX
  8
0
 10
9.4394171897
 20
-1.43993409047
 30
0.0
  0
VERTEX
  8
0
 10
9.4394171897
 20
-1.48993409047
 30
0.0
  0
VERTEX
  8
0
 10
9.4394171897
 20
-1.53993409047
 30
0.0
  0
VERTEX
  8
0
 10
9.4394171897
 20
-1.58993409047
 30
0.0
  0
VERTEX
  8
0
 10
9.4394171897
 20
-1.63993409047
 30
0.0
  0
VERTEX
  8
0
 10
9.4394171897
 20
-1.68993409047
 30
0.0
  0
VERTEX
  8
0
 10
9.4394171897
 20
-1.73993409047
 30
0.0
  0
VERTEX
  8
0
 10
9.4394171897
 20
-1.78993409047
 30
0.0
  0
VERTEX
  8
0
 10
9.4394171897
 20
-1.83993409047
 30
0.0
  0
VERTEX
  8
0
 10
9.4394171897
 20
-1.88993409047
 30
0.0
  0
VERTEX
  8
0
 10
9.4394171897
 20
-1.93993409047
 30
0.0
  0
VERTEX
  8
0
 10
9.4394171897
 20
-1.98993409047
 30
0.0
  0
VERTEX
  8
0
 10
9.4394171897
 20
-2.01520144661
 30
0.0
  0
SEQEND
  8
0
  0
POLYLINE
  8
0
 62
0
 70
0
 66
1
 10
0.0
 20
0.0
 30
0.0
  0
VERTEX
  8
0
 10
9.4394171897
 20
-2.01520144661
 30
0.0
  0
VERTEX
  8
0
 10
9.4394171897
 20
-1.96520144661
 30
0.0
  0
VERTEX
  8
0
 10
9.4394171897
 20
-1.91520144661
 30
0.0
  0
VERTEX
  8
0
 10
9.4394171897
 20
-1.86520144661
 30
0.0
  0
VERTEX
  8
0
 10
9.4394171897
 20
-1.81520144661
 30
0.0
  0
VERTEX
  8
0
 10
9.4394171897
 20
-1.76520144661
 30
0.0
  0
VERTEX
  8
0
 10
9.4394171897
 20
-1.71520144661
 30
0.0
  0
VERTEX
  8
0
 10
9.4394171897
 20
-1.66520144661
 30
0.0
  0
VERTEX
  8
0
 10
9.4394171897
 20
-1.61520144661
 30
0.0
  0
VERTEX
  8
0
 10
9.4394171897
 20
-1.56520144661
 30
0.0
  0
VERTEX
  8
0
 10
9.4394171897
 20
-1.51520144661
 30
0.0
  0
VERTEX
  8
0
 10
9.4394171897
 20
-1.46520144661
 30
0.0
  0
VERTEX
  8
0
 10
9.4394171897
 20
-1.41520144661
 30
0.0
  0
VERTEX
  8
0
 10
9.4394171897
 20
-1.36520144661
 30
0.0
  0
VERTEX
  8
0
 10
9.4394171897
 20
-1.31520144661
 30
0.0
  0
VERTEX
  8
0
 10
9.4394171897
 20
-1.26520144661
 30
0.0
  0
VERTEX
  8
0
 10
9.4394171897
 20
-1.21520144661
 30
0.0
  0
VERTEX
  8
0
 10
9.4394171897
 20
-1.16520144661
 30
0.0
  0
VERTEX
  8
0
 10
9.4394171897
 20
-1.11520144661
 30
0.0
  0
VERTEX
  8
0
 10
9.4394171897
 20
-1.06520144661
 30
0.0
  0
VERTEX
  8
0
 10
9.4394171897
 20
-1.01520144661
 30
0.0
  0
VERTEX
  8
0
 10
9.4394171897
 20
-0.965201446612
 30
0.0
  0
VERTEX
  8
0
 10
9.4394171897
 20
-0.915201446612
 30
0.0
  0
VERTEX
  8
0
 10
9.4394171897
 20
-0.865201446612
 30
0.0
  0
VERTEX
  8
0
 10
9.4394171897
 20
-0.815201446612
 30
0.0
  0
VERTEX
  8
0
 10
9.4394171897
 20
-0.765201446612
 30
0.0
  0
VERTEX
  8
0
 10
9.4394171897
 20
-0.715201446612
 30
0.0
  0
VERTEX
  8
0
 10
9.4394171897
 20
-0.665201446612
 30
0.0
  0
VERTEX
  8
0
 10
9.4394171897
 20
-0.615201446612
 30
0.0
  0
VERTEX
  8
0
 10
9.4394171897
 20
-0.565201446612
 30
0.0
  0
VERTEX
  8
0
 10
9.4394171897
 20
-0.515201446612
 30
0.0
  0
VERTEX
  8
0
 10
9.4394171897
 20
-0.465201446612
 30
0.0
  0
VERTEX
  8
0
 10
9.4394171897
 20
-0.415201446612
 30
0.0
  0
VERTEX
  8
0
 10
9.4394171897
 20
-0.365201446612
 30
0.0
  0
VERTEX
  8
0
 10
9.4394171897
 20
-0.315201446612
 30
0.0
  0
VERTEX
  8
0
 10
9.4394171897
 20
-0.265201446612
 30
0.0
  0
VERTEX
  8
0
 10
9.4394171897
 20
-0.215201446612
 30
0.0
  0
VERTEX
  8
0
 10
9.4394171897
 20
-0.165201446612
 30
0.0
  0
VERTEX
  8
0
 10
9.4394171897
 20
-0.115201446612
 30
0.0
  0
VERTEX
  8
0
 10
9.4394171897
 20
-0.0652014466117
 30
0.0
  0
VERTEX
  8
0
 10
9.4394171897
 20
-0.0152014466117
 30
0.0
  0
VERTEX
  8
0
 10
9.4394171897
 20
0.0347985533883
 30
0.0
  0
VERTEX
  8
0
 10
9.4394171897
 20
0.0847985533883
 30
0.0
  0
VERTEX
  8
0
 10
9.4394171897
 20
0.134798553388
 30
0.0
  0
VERTEX
  8
0
 10
9.4394171897
 20
0.184798553388
 30
0.0
  0
VERTEX
  8
0
 10
9.4394171897
 20
0.234798553388
 30
0.0
  0
VERTEX
  8
0
 10
9.4394171897
 20
0.284798553388
 30
0.0
  0
VERTEX
  8
0
 10
9.4394171897
 20
0.334798553388
 30
0.0
  0
VERTEX
  8
0
 10
9.4394171897
 20
0.384798553388
 30
0.0
  0
VERTEX
  8
0
 10
9.4394171897
 20
0.434798553388
 30
0.0
  0
VERTEX
  8
0
 10
9.4394171897
 20
0.484798553388
 30
0.0
  0
VERTEX
  8
0
 10
9.4394171897
 20
0.534798553388
 30
0.0
  0
VERTEX
  8
0
 10
9.4394171897
 20
0.584798553388
 30
0.0
  0
VERTEX
  8
0
 10
9.4394171897
 20
0.634798553388
 30
0.0
  0
VERTEX
  8
0
 10
9.4394171897
 20
0.684798553388
 30
0.0
  0
VERTEX
  8
0
 10
9.4394171897
 20
0.734798553388
 30
0.0
  0
VERTEX
  8
0
 10
9.4394171897
 20
0.784798553388
 30
0.0
  0
VERTEX
  8
0
 10
9.4394171897
 20
0.834798553388
 30
0.0
  0
VERTEX
  8
0
 10
9.4394171897
 20
0.884798553388
 30
0.0
  0
VERTEX
  8
0
 10
9.4394171897
 20
0.934798553388
 30
0.0
  0
VERTEX
  8
0
 10
9.4394171897
 20
0.984798553388
 30
0.0
  0
VERTEX
  8
0
 10
9.4394171897
 20
1.03479855339
 30
0.0
  0
VERTEX
  8
0
 10
9.4394171897
 20
1.08479855339
 30
0.0
  0
VERTEX
  8
0
 10
9.4394171897
 20
1.13479855339
 30
0.0
  0
VERTEX
  8
0
 10
9.4394171897
 20
1.18479855339
 30
0.0
  0
VERTEX
  8
0
 10
9.4394171897
 20
1.23479855339
 30
0.0
  0
VERTEX
  8
0
 10
9.4394171897
 20
1.28479855339
 30
0.0
  0
VERTEX
  8
0
 10
9.4394171897
 20
1.33479855339
 30
0.0
  0
VERTEX
  8
0
 10
9.4394171897
 20
1.38479855339
 30
0.0
  0
VERTEX
  8
0
 10
9.4394171897
 20
1.43479855339
 30
0.0
  0
VERTEX
  8
0
 10
9.4394171897
 20
1.48479855339
 30
0.0
  0
VERTEX
  8
0
 10
9.4394171897
 20
1.53479855339
 30
0.0
  0
VERTEX
  8
0
 10
9.4394171897
 20
1.58479855339
 30
0.0
  0
VERTEX
  8
0
 10
9.4394171897
 20
1.63479855339
 30
0.0
  0
VERTEX
  8
0
 10
9.4394171897
 20
1.68479855339
 30
0.0
  0
VERTEX
  8
0
 10
9.4394171897
 20
1.73479855339
 30
0.0
  0
VERTEX
  8
0
 10
9.4394171897
 20
1.78479855339
 30
0.0
  0
VERTEX
  8
0
 10
9.4394171897
 20
1.83479855339
 30
0.0
  0
VERTEX
  8
0
 10
9.4394171897
 20
1.86006590953
 30
0.0
  0
SEQEND
  8
0
  0
POLYLINE
  8
0
 62
0
 70
1
 66
1
 10
0.0
 20
0.0
 30
0.0
  0
VERTEX
  8
0
 10
4.4394171897
 20
-1.86006590953
 30
0.0
  0
VERTEX
  8
0
 10
4.4394171897
 20
-1.91006590953
 30
0.0
  0
VERTEX
  8
0
 10
4.4394171897
 20
-1.96006590953
 30
0.0
  0
VERTEX
  8
0
 10
4.4394171897
 20
-2.01006590953
 30
0.0
  0
VERTEX
  8
0
 10
4.4394171897
 20
-2.06006590953
 30
0.0
  0
SEQEND
  8
0
  0
POLYLINE
  8
0
 62
0
 70
1
 66
1
 10
0.0
 20
0.0
 30
0.0
  0
VERTEX
  8
0
 10
-5.5605828103
 20
2.85355339059
 30
0.0
  0
VERTEX
  8
0
 10
-5.5605828103
 20
2.90355339059
 30
0.0
  0
VERTEX
  8
0
 10
-5.5605828103
 20
2.95355339059
 30
0.0
  0
SEQEND
  8
0
  0
POLYLINE
  8
0
 62
0
 70
1
 66
1
 10
0.0
 20
0.0
 30
0.0
  0
VERTEX
  8
0
 10
-5.5605828103
 20
2.79347995711
 30
0.0
  0
SEQEND
  8
0
  0
POLYLINE
  8
0
 62
0
 70
1
 66
1
 10
0.0
 20
0.0
 30
0.0
  0
VERTEX
  8
0
 10
-5.5605828103
 20
1.86006590953
 30
0.0
  0
VERTEX
  8
0
 10
-5.5605828103
 20
1.91006590953
 30
0.0
  0
VERTEX
  8
0
 10
-5.5605828103
 20
1.96006590953
 30
0.0
  0
VERTEX
  8
0
 10
-5.5605828103
 20
2.01006590953
 30
0.0
  0
VERTEX
  8
0
 10
-5.5605828103
 20
2.06006590953
 30
0.0
  0
SEQEND
  8
0
  0
POLYLINE
  8
0
 62
0
 70
1
 66
1
 10
0.0
 20
0.0
 30
0.0
  0
VERTEX
  8
0
 10
4.4394171897
 20
-2.85355339059
 30
0.0
  0
VERTEX
  8
0
 10
4.4394171897
 20
-2.90355339059
 30
0.0
  0
VERTEX
  8
0
 10
4.4394171897
 20
-2.95355339059
 30
0.0
  0
SEQEND
  8
0
  0
POLYLINE
  8
0
 62
0
 70
1
 66
1
 10
0.0
 20
0.0
 30
0.0
  0
VERTEX
  8
0
 10
4.4394171897
 20
-2.79347995711
 30
0.0
  0
SEQEND
  8
0
  0
POLYLINE
  8
0
 62
0
 70
1
 66
1
 10
0.0
 20
0.0
 30
0.0
  0
VERTEX
  8
0
 10
-5.5605828103
 20
2.09438048458
 30
0.0
  0
VERTEX
  8
0
 10
-5.5605828103
 20
2.04438048458
 30
0.0
  0
SEQEND
  8
0
  0
POLYLINE
  8
0
 62
0
 70
1
 66
1
 10
0.0
 20
0.0
 30
0.0
  0
VERTEX
  8
0
 10
11.017670726
 20
-0.654905728393
 30
0.0
  0
VERTEX
  8
0
 10
11.017670726
 20
-0.604905728393
 30
0.0
  0
SEQEND
  8
0
  0
POLYLINE
  8
0
 62
0
 70
0
 66
1
 10
0.0
 20
0.0
 30
0.0
  0
VERTEX
  8
0
 10
11.017670726
 20
-0.6
 30
0.0
  0
VERTEX
  8
0
 10
11.017670726
 20
-0.55
 30
0.0
  0
VERTEX
  8
0
 10
11.017670726
 20
-0.5
 30
0.0
  0
VERTEX
  8
0
 10
11.017670726
 20
-0.45
 30
0.0
  0
VERTEX
  8
0
 10
11.017670726
 20
-0.4
 30
0.0
  0
VERTEX
  8
0
 10
11.017670726
 20
-0.35
 30
0.0
  0
VERTEX
  8
0
 10
11.017670726
 20
-0.3
 30
0.0
  0
VERTEX
  8
0
 10
11.017670726
 20
-0.25
 30
0.0
  0
VERTEX
  8
0
 10
11.017670726
 20
-0.2
 30
0.0
  0
VERTEX
  8
0
 10
11.017670726
 20
-0.15
 30
0.0
  0
VERTEX
  8
0
 10
11.017670726
 20
-0.0999999999997
 30
0.0
  0
VERTEX
  8
0
 10
11.017670726
 20
-0.0499999999997
 30
0.0
  0
VERTEX
  8
0
 10
11.017670726
 20
3.55274129248e-13
 30
0.0
  0
VERTEX
  8
0
 10
11.017670726
 20
0.0500000000004
 30
0.0
  0
VERTEX
  8
0
 10
11.017670726
 20
0.1
 30
0.0
  0
VERTEX
  8
0
 10
11.017670726
 20
0.15
 30
0.0
  0
VERTEX
  8
0
 10
11.017670726
 20
0.2
 30
0.0
  0
VERTEX
  8
0
 10
11.017670726
 20
0.25
 30
0.0
  0
VERTEX
  8
0
 10
11.017670726
 20
0.3
 30
0.0
  0
VERTEX
  8
0
 10
11.017670726
 20
0.35
 30
0.0
  0
VERTEX
  8
0
 10
11.017670726
 20
0.4
 30
0.0
  0
VERTEX
  8
0
 10
11.017670726
 20
0.45
 30
0.0
  0
VERTEX
  8
0
 10
11.017670726
 20
0.5
 30
0.0
  0
VERTEX
  8
0
 10
11.017670726
 20
0.55
 30
0.0
  0
VERTEX
  8
0
 10
11.017670726
 20
0.6
 30
0.0
  0
SEQEND
  8
0
  0
POLYLINE
  8
0
 62
0
 70
1
 66
1
 10
0.0
 20
0.0
 30
0.0
  0
VERTEX
  8
0
 10
11.017670726
 20
0.6
 30
0.0
  0
VERTEX
  8
0
 10
11.017670726
 20
0.65
 30
0.0
  0
SEQEND
  8
0
  0
POLYLINE
  8
0
 62
0
 70
0
 66
1
 10
0.0
 20
0.0
 30
0.0
  0
VERTEX
  8
0
 10
10.2694171897
 20
-2.79347995711
 30
0.0
  0
VERTEX
  8
0
 10
10.3193986485
 20
-2.79230100926
 30
0.0
  0
VERTEX
  8
0
 10
10.3692683141
 20
-2.78875892411
 30
0.0
  0
VERTEX
  8
0
 10
10.4189116348
 20
-2.78283795598
 30
0.0
  0
VERTEX
  8
0
 10
10.4682084144
 20
-2.77451180224
 30
0.0
  0
VERTEX
  8
0
 10
10.5170296617
 20
-2.76374355061
 30
0.0
  0
VERTEX
  8
0
 10
10.5652340316
 20
-2.75048568771
 30
0.0
  0
VERTEX
  8
0
 10
10.6126636911
 20
-2.73468027282
 30
0.0
  0
VERTEX
  8
0
 10
10.6591394341
 20
-2.71625944529
 30
0.0
  0
VERTEX
  8
0
 10
10.7044548541
 20
-2.69514653242
 30
0.0
  0
VERTEX
  8
0
 10
10.748369409
 20
-2.67125817282
 30
0.0
  0
VERTEX
  8
0
 10
10.7906002905
 20
-2.64450808565
 30
0.0
  0
VERTEX
  8
0
 10
10.8308132243
 20
-2.6148134124
 30
0.0
  0
VERTEX
  8
0
 10
10.8686127769
 20
-2.58210492156
 30
0.0
  0
VERTEX
  8
0
 10
10.9035336096
 20
-2.54634270836
 30
0.0
  0
VERTEX
  8
0
 10
10.935035569
 20
-2.50753908242
 30
0.0
  0
VERTEX
  8
0
 10
10.9625076015
 20
-2.46578955273
 30
0.0
  0
VERTEX
  8
0
 10
10.9852876866
 20
-2.42131028289
 30
0.0
  0
VERTEX
  8
0
 10
11.002706566
 20
-2.37447527387
 30
0.0
  0
VERTEX
  8
0
 10
11.014158761
 20
-2.32583955135
 30
0.0
  0
VERTEX
  8
0
 10
11.0191925045
 20
-2.2761301895
 30
0.0
  0
VERTEX
  8
0
 10
11.0194171897
 20
-2.26314987122
 30
0.0
  0
SEQEND
  8
0
  0
POLYLINE
  8
0
 62
0
 70
0
 66
1
 10
0.0
 20
0.0
 30
0.0
  0
VERTEX
  8
0
 10
10.2694171897
 20
-0.712739868294
 30
0.0
  0
VERTEX
  8
0
 10
10.2694171897
 20
-0.762739868294
 30
0.0
  0
VERTEX
  8
0
 10
10.2694171897
 20
-0.812739868294
 30
0.0
  0
VERTEX
  8
0
 10
10.2694171897
 20
-0.862739868294
 30
0.0
  0
VERTEX
  8
0
 10
10.2694171897
 20
-0.912739868294
 30
0.0
  0
VERTEX
  8
0
 10
10.2694171897
 20
-0.962739868294
 30
0.0
  0
VERTEX
  8
0
 10
10.2694171897
 20
-1.01273986829
 30
0.0
  0
VERTEX
  8
0
 10
10.2694171897
 20
-1.06273986829
 30
0.0
  0
VERTEX
  8
0
 10
10.2694171897
 20
-1.11273986829
 30
0.0
  0
VERTEX
  8
0
 10
10.2694171897
 20
-1.16273986829
 30
0.0
  0
VERTEX
  8
0
 10
10.2694171897
 20
-1.21273986829
 30
0.0
  0
VERTEX
  8
0
 10
10.2694171897
 20
-1.26273986829
 30
0.0
  0
VERTEX
  8
0
 10
10.2694171897
 20
-1.31273986829
 30
0.0
  0
VERTEX
  8
0
 10
10.2694171897
 20
-1.36273986829
 30
0.0
  0
VERTEX
  8
0
 10
10.2694171897
 20
-1.41273986829
 30
0.0
  0
VERTEX
  8
0
 10
10.2694171897
 20
-1.46273986829
 30
0.0
  0
VERTEX
  8
0
 10
10.2694171897
 20
-1.51273986829
 30
0.0
  0
VERTEX
  8
0
 10
10.2694171897
 20
-1.56273986829
 30
0.0
  0
VERTEX
  8
0
 10
10.2694171897
 20
-1.61273986829
 30
0.0
  0
VERTEX
  8
0
 10
10.2694171897
 20
-1.66273986829
 30
0.0
  0
VERTEX
  8
0
 10
10.2694171897
 20
-1.71273986829
 30
0.0
  0
VERTEX
  8
0
 10
10.2694171897
 20
-1.75636993415
 30
0.0
  0
SEQEND
  8
0
  0
POLYLINE
  8
0
 62
0
 70
0
 66
1
 10
0.0
 20
0.0
 30
0.0
  0
VERTEX
  8
0
 10
-11.3905828103
 20
2.85355339059
 30
0.0
  0
VERTEX
  8
0
 10
-11.4405642691
 20
2.85237444274
 30
0.0
  0
VERTEX
  8
0
 10
-11.4904339347
 20
2.84883235759
 30
0.0
  0
VERTEX
  8
0
 10
-11.5400772554
 20
2.84291138946
 30
0.0
  0
VERTEX
  8
0
 10
-11.589374035
 20
2.83458523572
 30
0.0
  0
VERTEX
  8
0
 10
-11.6381952823
 20
2.82381698409
 30
0.0
  0
VERTEX
  8
0
 10
-11.6863996522
 20
2.81055912119
 30
0.0
  0
VERTEX
  8
0
 10
-11.7338293117
 20
2.7947537063
 30
0.0
  0
VERTEX
  8
0
 10
-11.7803050547
 20
2.77633287877
 30
0.0
  0
VERTEX
  8
0
 10
-11.8256204747
 20
2.7552199659
 30
0.0
  0
VERTEX
  8
0
 10
-11.8695350296
 20
2.7313316063
 30
0.0
  0
VERTEX
  8
0
 10
-11.9117659111
 20
2.70458151913
 30
0.0
  0
VERTEX
  8
0
 10
-11.9519788449
 20
2.67488684588
 30
0.0
  0
VERTEX
  8
0
 10
-11.9897783975
 20
2.64217835504
 30
0.0
  0
VERTEX
  8
0
 10
-12.0246992302
 20
2.60641614184
 30
0.0
  0
VERTEX
  8
0
 10
-12.0562011896
 20
2.56761251591
 30
0.0
  0
VERTEX
  8
0
 10
-12.0836732221
 20
2.52586298621
 30
0.0
  0
VERTEX
  8
0
 10
-12.1064533072
 20
2.48138371637
 30
0.0
  0
VERTEX
  8
0
 10
-12.1238721866
 20
2.43454870735
 30
0.0
  0
VERTEX
  8
0
 10
-12.1353243816
 20
2.38591298483
 30
0.0
  0
VERTEX
  8
0
 10
-12.1403581251
 20
2.33620362298
 30
0.0
  0
VERTEX
  8
0
 10
-12.1405828103
 20
2.3232233047
 30
0.0
  0
SEQEND
  8
0
  0
POLYLINE
  8
0
 62
0
 70
0
 66
1
 10
0.0
 20
0.0
 30
0.0
  0
VERTEX
  8
0
 10
-12.1405828103
 20
2.47528190558
 30
0.0
  0
VERTEX
  8
0
 10
-12.1372617263
 20
2.52513467059
 30
0.0
  0
VERTEX
  8
0
 10
-12.1274410244
 20
2.57412514605
 30
0.0
  0
VERTEX
  8
0
 10
-12.1115178004
 20
2.62148850597
 30
0.0
  0
VERTEX
  8
0
 10
-12.0900665882
 20
2.66662249779
 30
0.0
  0
VERTEX
  8
0
 10
-12.0637479489
 20
2.70910737057
 30
0.0
  0
VERTEX
  8
0
 10
-12.0332310903
 20
2.74868928309
 30
0.0
  0
VERTEX
  8
0
 10
-11.9991430498
 20
2.78524515735
 30
0.0
  0
VERTEX
  8
0
 10
-11.9620432719
 20
2.81874437866
 30
0.0
  0
VERTEX
  8
0
 10
-11.9224162996
 20
2.84921581665
 30
0.0
  0
VERTEX
  8
0
 10
-11.8806749665
 20
2.87672285916
 30
0.0
  0
VERTEX
  8
0
 10
-11.8371684998
 20
2.90134599813
 30
0.0
  0
VERTEX
  8
0
 10
-11.792192152
 20
2.92317136553
 30
0.0
  0
VERTEX
  8
0
 10
-11.7459966106
 20
2.94228352795
 30
0.0
  0
VERTEX
  8
0
 10
-11.6987964312
 20
2.95876115224
 30
0.0
  0
VERTEX
  8
0
 10
-11.6507772807
 20
2.97267452595
 30
0.0
  0
VERTEX
  8
0
 10
-11.6021020372
 20
2.98408423293
 30
0.0
  0
VERTEX
  8
0
 10
-11.552915903
 20
2.99304052067
 30
0.0
  0
VERTEX
  8
0
 10
-11.5033507146
 20
2.99958305938
 30
0.0
  0
VERTEX
  8
0
 10
-11.4535286353
 20
3.00374090262
 30
0.0
  0
VERTEX
  8
0
 10
-11.4035653969
 20
3.00553253144
 30
0.0
  0
VERTEX
  8
0
 10
-11.3905828103
 20
3.00561199147
 30
0.0
  0
SEQEND
  8
0
  0
POLYLINE
  8
0
 62
0
 70
0
 66
1
 10
0.0
 20
0.0
 30
0.0
  0
VERTEX
  8
0
 10
-11.3905828103
 20
2.79347995711
 30
0.0
  0
VERTEX
  8
0
 10
-11.4405642691
 20
2.79230100926
 30
0.0
  0
VERTEX
  8
0
 10
-11.4904339347
 20
2.78875892411
 30
0.0
  0
VERTEX
  8
0
 10
-11.5400772554
 20
2.78283795598
 30
0.0
  0
VERTEX
  8
0
 10
-11.589374035
 20
2.77451180224
 30
0.0
  0
VERTEX
  8
0
 10
-11.6381952823
 20
2.76374355061
 30
0.0
  0
VERTEX
  8
0
 10
-11.6863996522
 20
2.75048568771
 30
0.0
  0
VERTEX
  8
0
 10
-11.7338293117
 20
2.73468027282
 30
0.0
  0
VERTEX
  8
0
 10
-11.7803050547
 20
2.71625944529
 30
0.0
  0
VERTEX
  8
0
 10
-11.8256204747
 20
2.69514653242
 30
0.0
  0
VERTEX
  8
0
 10
-11.8695350296
 20
2.67125817282
 30
0.0
  0
VERTEX
  8
0
 10
-11.9117659111
 20
2.64450808565
 30
0.0
  0
VERTEX
  8
0
 10
-11.9519788449
 20
2.6148134124
 30
0.0
  0
VERTEX
  8
0
 10
-11.9897783975
 20
2.58210492156
 30
0.0
  0
VERTEX
  8
0
 10
-12.0246992302
 20
2.54634270836
 30
0.0
  0
VERTEX
  8
0
 10
-12.0562011896
 20
2.50753908242
 30
0.0
  0
VERTEX
  8
0
 10
-12.0836732221
 20
2.46578955273
 30
0.0
  0
VERTEX
  8
0
 10
-12.1064533072
 20
2.42131028289
 30
0.0
  0
VERTEX
  8
0
 10
-12.1238721866
 20
2.37447527387
 30
0.0
  0
VERTEX
  8
0
 10
-12.1353243816
 20
2.32583955135
 30
0.0
  0
VERTEX
  8
0
 10
-12.1403581251
 20
2.2761301895
 30
0.0
  0
VERTEX
  8
0
 10
-12.1405828103
 20
2.26314987122
 30
0.0
  0
SEQEND
  8
0
  0
POLYLINE
  8
0
 62
0
 70
0
 66
1
 10
0.0
 20
0.0
 30
0.0
  0
VERTEX
  8
0
 10
-5.5605828103
 20
2.01520144661
 30
0.0
  0
VERTEX
  8
0
 10
-5.5605828103
 20
1.96520144661
 30
0.0
  0
VERTEX
  8
0
 10
-5.5605828103
 20
1.91520144661
 30
0.0
  0
VERTEX
  8
0
 10
-5.5605828103
 20
1.86520144661
 30
0.0
  0
VERTEX
  8
0
 10
-5.5605828103
 20
1.81520144661
 30
0.0
  0
VERTEX
  8
0
 10
-5.5605828103
 20
1.76520144661
 30
0.0
  0
VERTEX
  8
0
 10
-5.5605828103
 20
1.71520144661
 30
0.0
  0
VERTEX
  8
0
 10
-5.5605828103
 20
1.66520144661
 30
0.0
  0
VERTEX
  8
0
 10
-5.5605828103
 20
1.61520144661
 30
0.0
  0
VERTEX
  8
0
 10
-5.5605828103
 20
1.56520144661
 30
0.0
  0
VERTEX
  8
0
 10
-5.5605828103
 20
1.51520144661
 30
0.0
  0
VERTEX
  8
0
 10
-5.5605828103
 20
1.46520144661
 30
0.0
  0
VERTEX
  8
0
 10
-5.5605828103
 20
1.41520144661
 30
0.0
  0
VERTEX
  8
0
 10
-5.5605828103
 20
1.36520144661
 30
0.0
  0
VERTEX
  8
0
 10
-5.5605828103
 20
1.31520144661
 30
0.0
  0
VERTEX
  8
0
 10
-5.5605828103
 20
1.26520144661
 30
0.0
  0
VERTEX
  8
0
 10
-5.5605828103
 20
1.21520144661
 30
0.0
  0
VERTEX
  8
0
 10
-5.5605828103
 20
1.16520144661
 30
0.0
  0
VERTEX
  8
0
 10
-5.5605828103
 20
1.11520144661
 30
0.0
  0
VERTEX
  8
0
 10
-5.5605828103
 20
1.06520144661
 30
0.0
  0
VERTEX
  8
0
 10
-5.5605828103
 20
1.01520144661
 30
0.0
  0
VERTEX
  8
0
 10
-5.5605828103
 20
0.965201446612
 30
0.0
  0
VERTEX
  8
0
 10
-5.5605828103
 20
0.915201446612
 30
0.0
  0
VERTEX
  8
0
 10
-5.5605828103
 20
0.865201446612
 30
0.0
  0
VERTEX
  8
0
 10
-5.5605828103
 20
0.815201446612
 30
0.0
  0
VERTEX
  8
0
 10
-5.5605828103
 20
0.765201446612
 30
0.0
  0
VERTEX
  8
0
 10
-5.5605828103
 20
0.715201446612
 30
0.0
  0
VERTEX
  8
0
 10
-5.5605828103
 20
0.665201446612
 30
0.0
  0
VERTEX
  8
0
 10
-5.5605828103
 20
0.615201446612
 30
0.0
  0
VERTEX
  8
0
 10
-5.5605828103
 20
0.565201446612
 30
0.0
  0
VERTEX
  8
0
 10
-5.5605828103
 20
0.515201446612
 30
0.0
  0
VERTEX
  8
0
 10
-5.5605828103
 20
0.465201446612
 30
0.0
  0
VERTEX
  8
0
 10
-5.5605828103
 20
0.415201446612
 30
0.0
  0
VERTEX
  8
0
 10
-5.5605828103
 20
0.365201446612
 30
0.0
  0
VERTEX
  8
0
 10
-5.5605828103
 20
0.315201446612
 30
0.0
  0
VERTEX
  8
0
 10
-5.5605828103
 20
0.265201446612
 30
0.0
  0
VERTEX
  8
0
 10
-5.5605828103
 20
0.215201446612
 30
0.0
  0
VERTEX
  8
0
 10
-5.5605828103
 20
0.165201446612
 30
0.0
  0
VERTEX
  8
0
 10
-5.5605828103
 20
0.115201446612
 30
0.0
  0
VERTEX
  8
0
 10
-5.5605828103
 20
0.0652014466118
 30
0.0
  0
VERTEX
  8
0
 10
-5.5605828103
 20
0.0152014466118
 30
0.0
  0
VERTEX
  8
0
 10
-5.5605828103
 20
-0.0347985533882
 30
0.0
  0
VERTEX
  8
0
 10
-5.5605828103
 20
-0.0847985533882
 30
0.0
  0
VERTEX
  8
0
 10
-5.5605828103
 20
-0.134798553388
 30
0.0
  0
VERTEX
  8
0
 10
-5.5605828103
 20
-0.184798553388
 30
0.0
  0
VERTEX
  8
0
 10
-5.5605828103
 20
-0.234798553388
 30
0.0
  0
VERTEX
  8
0
 10
-5.5605828103
 20
-0.284798553388
 30
0.0
  0
VERTEX
  8
0
 10
-5.5605828103
 20
-0.334798553388
 30
0.0
  0
VERTEX
  8
0
 10
-5.5605828103
 20
-0.384798553388
 30
0.0
  0
VERTEX
  8
0
 10
-5.5605828103
 20
-0.434798553388
 30
0.0
  0
VERTEX
  8
0
 10
-5.5605828103
 20
-0.484798553388
 30
0.0
  0
VERTEX
  8
0
 10
-5.5605828103
 20
-0.534798553388
 30
0.0
  0
VERTEX
  8
0
 10
-5.5605828103
 20
-0.584798553388
 30
0.0
  0
VERTEX
  8
0
 10
-5.5605828103
 20
-0.634798553388
 30
0.0
  0
VERTEX
  8
0
 10
-5.5605828103
 20
-0.684798553388
 30
0.0
  0
VERTEX
  8
0
 10
-5.5605828103
 20
-0.734798553388
 30
0.0
  0
VERTEX
  8
0
 10
-5.5605828103
 20
-0.784798553388
 30
0.0
  0
VERTEX
  8
0
 10
-5.5605828103
 20
-0.834798553388
 30
0.0
  0
VERTEX
  8
0
 10
-5.5605828103
 20
-0.884798553388
 30
0.0
  0
VERTEX
  8
0
 10
-5.5605828103
 20
-0.934798553388
 30
0.0
  0
VERTEX
  8
0
 10
-5.5605828103
 20
-0.984798553388
 30
0.0
  0
VERTEX
  8
0
 10
-5.5605828103
 20
-1.03479855339
 30
0.0
  0
VERTEX
  8
0
 10
-5.5605828103
 20
-1.08479855339
 30
0.0
  0
VERTEX
  8
0
 10
-5.5605828103
 20
-1.13479855339
 30
0.0
  0
VERTEX
  8
0
 10
-5.5605828103
 20
-1.18479855339
 30
0.0
  0
VERTEX
  8
0
 10
-5.5605828103
 20
-1.23479855339
 30
0.0
  0
VERTEX
  8
0
 10
-5.5605828103
 20
-1.28479855339
 30
0.0
  0
VERTEX
  8
0
 10
-5.5605828103
 20
-1.33479855339
 30
0.0
  0
VERTEX
  8
0
 10
-5.5605828103
 20
-1.38479855339
 30
0.0
  0
VERTEX
  8
0
 10
-5.5605828103
 20
-1.43479855339
 30
0.0
  0
VERTEX
  8
0
 10
-5.5605828103
 20
-1.48479855339
 30
0.0
  0
VERTEX
  8
0
 10
-5.5605828103
 20
-1.53479855339
 30
0.0
  0
VERTEX
  8
0
 10
-5.5605828103
 20
-1.58479855339
 30
0.0
  0
VERTEX
  8
0
 10
-5.5605828103
 20
-1.63479855339
 30
0.0
  0
VERTEX
  8
0
 10
-5.5605828103
 20
-1.68479855339
 30
0.0
  0
VERTEX
  8
0
 10
-5.5605828103
 20
-1.73479855339
 30
0.0
  0
VERTEX
  8
0
 10
-5.5605828103
 20
-1.78479855339
 30
0.0
  0
VERTEX
  8
0
 10
-5.5605828103
 20
-1.83479855339
 30
0.0
  0
VERTEX
  8
0
 10
-5.5605828103
 20
-1.86006590953
 30
0.0
  0
SEQEND
  8
0
  0
POLYLINE
  8
0
 62
0
 70
0
 66
1
 10
0.0
 20
0.0
 30
0.0
  0
VERTEX
  8
0
 10
10.2694171897
 20
-2.85355339059
 30
0.0
  0
VERTEX
  8
0
 10
10.3193986485
 20
-2.85237444274
 30
0.0
  0
VERTEX
  8
0
 10
10.3692683141
 20
-2.84883235759
 30
0.0
  0
VERTEX
  8
0
 10
10.4189116348
 20
-2.84291138946
 30
0.0
  0
VERTEX
  8
0
 10
10.4682084144
 20
-2.83458523572
 30
0.0
  0
VERTEX
  8
0
 10
10.5170296617
 20
-2.82381698409
 30
0.0
  0
VERTEX
  8
0
 10
10.5652340316
 20
-2.81055912119
 30
0.0
  0
VERTEX
  8
0
 10
10.6126636911
 20
-2.7947537063
 30
0.0
  0
VERTEX
  8
0
 10
10.6591394341
 20
-2.77633287877
 30
0.0
  0
VERTEX
  8
0
 10
10.7044548541
 20
-2.7552199659
 30
0.0
  0
VERTEX
  8
0
 10
10.748369409
 20
-2.7313316063
 30
0.0
  0
VERTEX
  8
0
 10
10.7906002905
 20
-2.70458151913
 30
0.0
  0
VERTEX
  8
0
 10
10.8308132243
 20
-2.67488684588
 30
0.0
  0
VERTEX
  8
0
 10
10.8686127769
 20
-2.64217835504
 30
0.0
  0
VERTEX
  8
0
 10
10.9035336096
 20
-2.60641614184
 30
0.0
  0
VERTEX
  8
0
 10
10.935035569
 20
-2.56761251591
 30
0.0
  0
VERTEX
  8
0
 10
10.9625076015
 20
-2.52586298621
 30
0.0
  0
VERTEX
  8
0
 10
10.9852876866
 20
-2.48138371637
 30
0.0
  0
VERTEX
  8
0
 10
11.002706566
 20
-2.43454870735
 30
0.0
  0
VERTEX
  8
0
 10
11.014158761
 20
-2.38591298483
 30
0.0
  0
VERTEX
  8
0
 10
11.0191925045
 20
-2.33620362298
 30
0.0
  0
VERTEX
  8
0
 10
11.0194171897
 20
-2.3232233047
 30
0.0
  0
SEQEND
  8
0
  0
POLYLINE
  8
0
 62
0
 70
0
 66
1
 10
0.0
 20
0.0
 30
0.0
  0
VERTEX
  8
0
 10
11.0194171897
 20
-2.47528190558
 30
0.0
  0
VERTEX
  8
0
 10
11.0160961057
 20
-2.52513467059
 30
0.0
  0
VERTEX
  8
0
 10
11.0062754038
 20
-2.57412514605
 30
0.0
  0
VERTEX
  8
0
 10
10.9903521798
 20
-2.62148850597
 30
0.0
  0
VERTEX
  8
0
 10
10.9689009676
 20
-2.66662249779
 30
0.0
  0
VERTEX
  8
0
 10
10.9425823283
 20
-2.70910737057
 30
0.0
  0
VERTEX
  8
0
 10
10.9120654697
 20
-2.74868928309
 30
0.0
  0
VERTEX
  8
0
 10
10.8779774292
 20
-2.78524515735
 30
0.0
  0
VERTEX
  8
0
 10
10.8408776513
 20
-2.81874437866
 30
0.0
  0
VERTEX
  8
0
 10
10.801250679
 20
-2.84921581665
 30
0.0
  0
VERTEX
  8
0
 10
10.7595093459
 20
-2.87672285916
 30
0.0
  0
VERTEX
  8
0
 10
10.7160028792
 20
-2.90134599813
 30
0.0
  0
VERTEX
  8
0
 10
10.6710265314
 20
-2.92317136553
 30
0.0
  0
VERTEX
  8
0
 10
10.62483099
 20
-2.94228352795
 30
0.0
  0
VERTEX
  8
0
 10
10.5776308106
 20
-2.95876115224
 30
0.0
  0
VERTEX
  8
0
 10
10.5296116601
 20
-2.97267452595
 30
0.0
  0
VERTEX
  8
0
 10
10.4809364166
 20
-2.98408423293
 30
0.0
  0
VERTEX
  8
0
 10
10.4317502824
 20
-2.99304052067
 30
0.0
  0
VERTEX
  8
0
 10
10.382185094
 20
-2.99958305938
 30
0.0
  0
VERTEX
  8
0
 10
10.3323630147
 20
-3.00374090262
 30
0.0
  0
VERTEX
  8
0
 10
10.2823997763
 20
-3.00553253144
 30
0.0
  0
VERTEX
  8
0
 10
10.2694171897
 20
-3.00561199147
 30
0.0
  0
SEQEND
  8
0
  0
POLYLINE
  8
0
 62
0
 70
0
 66
1
 10
0.0
 20
0.0
 30
0.0
  0
VERTEX
  8
0
 10
11.0194171897
 20
-0.712739868294
 30
0.0
  0
VERTEX
  8
0
 10
11.0194171897
 20
-0.762739868294
 30
0.0
  0
VERTEX
  8
0
 10
11.0194171897
 20
-0.812739868294
 30
0.0
  0
VERTEX
  8
0
 10
11.0194171897
 20
-0.862739868294
 30
0.0
  0
VERTEX
  8
0
 10
11.0194171897
 20
-0.912739868294
 30
0.0
  0
VERTEX
  8
0
 10
11.0194171897
 20
-0.962739868294
 30
0.0
  0
VERTEX
  8
0
 10
11.0194171897
 20
-1.01273986829
 30
0.0
  0
VERTEX
  8
0
 10
11.0194171897
 20
-1.06273986829
 30
0.0
  0
VERTEX
  8
0
 10
11.0194171897
 20
-1.11273986829
 30
0.0
  0
VERTEX
  8
0
 10
11.0194171897
 20
-1.16273986829
 30
0.0
  0
VERTEX
  8
0
 10
11.0194171897
 20
-1.21273986829
 30
0.0
  0
VERTEX
  8
0
 10
11.0194171897
 20
-1.26273986829
 30
0.0
  0
VERTEX
  8
0
 10
11.0194171897
 20
-1.31273986829
 30
0.0
  0
VERTEX
  8
0
 10
11.0194171897
 20
-1.36273986829
 30
0.0
  0
VERTEX
  8
0
 10
11.0194171897
 20
-1.41273986829
 30
0.0
  0
VERTEX
  8
0
 10
11.0194171897
 20
-1.46273986829
 30
0.0
  0
VERTEX
  8
0
 10
11.0194171897
 20
-1.51273986829
 30
0.0
  0
VERTEX
  8
0
 10
11.0194171897
 20
-1.56273986829
 30
0.0
  0
VERTEX
  8
0
 10
11.0194171897
 20
-1.61273986829
 30
0.0
  0
VERTEX
  8
0
 10
11.0194171897
 20
-1.66273986829
 30
0.0
  0
VERTEX
  8
0
 10
11.0194171897
 20
-1.71273986829
 30
0.0
  0
VERTEX
  8
0
 10
11.0194171897
 20
-1.75636993415
 30
0.0
  0
SEQEND
  8
0
  0
POLYLINE
  8
0
 62
0
 70
1
 66
1
 10
0.0
 20
0.0
 30
0.0
  0
VERTEX
  8
0
 10
-5.5605828103
 20
-2.8
 30
0.0
  0
SEQEND
  8
0
  0
POLYLINE
  8
0
 62
0
 70
1
 66
1
 10
0.0
 20
0.0
 30
0.0
  0
VERTEX
  8
0
 10
-5.5605828103
 20
-3.0
 30
0.0
  0
VERTEX
  8
0
 10
-5.5605828103
 20
-2.95
 30
0.0
  0
VERTEX
  8
0
 10
-5.5605828103
 20
-2.9
 30
0.0
  0
SEQEND
  8
0
  0
POLYLINE
  8
0
 62
0
 70
1
 66
1
 10
0.0
 20
0.0
 30
0.0
  0
VERTEX
  8
0
 10
-5.5605828103
 20
-2.09438048458
 30
0.0
  0
VERTEX
  8
0
 10
-5.5605828103
 20
-2.04438048458
 30
0.0
  0
VERTEX
  8
0
 10
-5.5605828103
 20
-1.99438048458
 30
0.0
  0
VERTEX
  8
0
 10
-5.5605828103
 20
-1.94438048458
 30
0.0
  0
VERTEX
  8
0
 10
-5.5605828103
 20
-1.89438048458
 30
0.0
  0
SEQEND
  8
0
  0
POLYLINE
  8
0
 62
0
 70
0
 66
1
 10
0.0
 20
0.0
 30
0.0
  0
VERTEX
  8
0
 10
-12.1405828103
 20
0.712739868294
 30
0.0
  0
VERTEX
  8
0
 10
-12.1405828103
 20
0.762739868294
 30
0.0
  0
VERTEX
  8
0
 10
-12.1405828103
 20
0.812739868294
 30
0.0
  0
VERTEX
  8
0
 10
-12.1405828103
 20
0.862739868294
 30
0.0
  0
VERTEX
  8
0
 10
-12.1405828103
 20
0.912739868294
 30
0.0
  0
VERTEX
  8
0
 10
-12.1405828103
 20
0.962739868294
 30
0.0
  0
VERTEX
  8
0
 10
-12.1405828103
 20
1.01273986829
 30
0.0
  0
VERTEX
  8
0
 10
-12.1405828103
 20
1.06273986829
 30
0.0
  0
VERTEX
  8
0
 10
-12.1405828103
 20
1.11273986829
 30
0.0
  0
VERTEX
  8
0
 10
-12.1405828103
 20
1.16273986829
 30
0.0
  0
VERTEX
  8
0
 10
-12.1405828103
 20
1.21273986829
 30
0.0
  0
VERTEX
  8
0
 10
-12.1405828103
 20
1.26273986829
 30
0.0
  0
VERTEX
  8
0
 10
-12.1405828103
 20
1.31273986829
 30
0.0
  0
VERTEX
  8
0
 10
-12.1405828103
 20
1.36273986829
 30
0.0
  0
VERTEX
  8
0
 10
-12.1405828103
 20
1.41273986829
 30
0.0
  0
VERTEX
  8
0
 10
-12.1405828103
 20
1.46273986829
 30
0.0
  0
VERTEX
  8
0
 10
-12.1405828103
 20
1.51273986829
 30
0.0
  0
VERTEX
  8
0
 10
-12.1405828103
 20
1.56273986829
 30
0.0
  0
VERTEX
  8
0
 10
-12.1405828103
 20
1.61273986829
 30
0.0
  0
VERTEX
  8
0
 10
-12.1405828103
 20
1.66273986829
 30
0.0
  0
VERTEX
  8
0
 10
-12.1405828103
 20
1.71273986829
 30
0.0
  0
VERTEX
  8
0
 10
-12.1405828103
 20
1.75636993415
 30
0.0
  0
SEQEND
  8
0
  0
POLYLINE
  8
0
 62
0
 70
0
 66
1
 10
0.0
 20
0.0
 30
0.0
  0
VERTEX
  8
0
 10
-11.3905828103
 20
0.712739868294
 30
0.0
  0
VERTEX
  8
0
 10
-11.3905828103
 20
0.762739868294
 30
0.0
  0
VERTEX
  8
0
 10
-11.3905828103
 20
0.812739868294
 30
0.0
  0
VERTEX
  8
0
 10
-11.3905828103
 20
0.862739868294
 30
0.0
  0
VERTEX
  8
0
 10
-11.3905828103
 20
0.912739868294
 30
0.0
  0
VERTEX
  8
0
 10
-11.3905828103
 20
0.962739868294
 30
0.0
  0
VERTEX
  8
0
 10
-11.3905828103
 20
1.01273986829
 30
0.0
  0
VERTEX
  8
0
 10
-11.3905828103
 20
1.06273986829
 30
0.0
  0
VERTEX
  8
0
 10
-11.3905828103
 20
1.11273986829
 30
0.0
  0
VERTEX
  8
0
 10
-11.3905828103
 20
1.16273986829
 30
0.0
  0
VERTEX
  8
0
 10
-11.3905828103
 20
1.21273986829
 30
0.0
  0
VERTEX
  8
0
 10
-11.3905828103
 20
1.26273986829
 30
0.0
  0
VERTEX
  8
0
 10
-11.3905828103
 20
1.31273986829
 30
0.0
  0
VERTEX
  8
0
 10
-11.3905828103
 20
1.36273986829
 30
0.0
  0
VERTEX
  8
0
 10
-11.3905828103
 20
1.41273986829
 30
0.0
  0
VERTEX
  8
0
 10
-11.3905828103
 20
1.46273986829
 30
0.0
  0
VERTEX
  8
0
 10
-11.3905828103
 20
1.51273986829
 30
0.0
  0
VERTEX
  8
0
 10
-11.3905828103
 20
1.56273986829
 30
0.0
  0
VERTEX
  8
0
 10
-11.3905828103
 20
1.61273986829
 30
0.0
  0
VERTEX
  8
0
 10
-11.3905828103
 20
1.66273986829
 30
0.0
  0
VERTEX
  8
0
 10
-11.3905828103
 20
1.71273986829
 30
0.0
  0
VERTEX
  8
0
 10
-11.3905828103
 20
1.75636993415
 30
0.0
  0
SEQEND
  8
0
  0
POLYLINE
  8
0
 62
0
 70
0
 66
1
 10
0.0
 20
0.0
 30
0.0
  0
VERTEX
  8
0
 10
-12.1405828103
 20
-2.26314987122
 30
0.0
  0
VERTEX
  8
0
 10
-12.1372617263
 20
-2.31300263623
 30
0.0
  0
VERTEX
  8
0
 10
-12.1274410244
 20
-2.3619931117
 30
0.0
  0
VERTEX
  8
0
 10
-12.1115178004
 20
-2.40935647161
 30
0.0
  0
VERTEX
  8
0
 10
-12.0900665882
 20
-2.45449046343
 30
0.0
  0
VERTEX
  8
0
 10
-12.0637479489
 20
-2.49697533621
 30
0.0
  0
VERTEX
  8
0
 10
-12.0332310903
 20
-2.53655724873
 30
0.0
  0
VERTEX
  8
0
 10
-11.9991430498
 20
-2.57311312299
 30
0.0
  0
VERTEX
  8
0
 10
-11.9620432719
 20
-2.6066123443
 30
0.0
  0
VERTEX
  8
0
 10
-11.9224162996
 20
-2.63708378229
 30
0.0
  0
VERTEX
  8
0
 10
-11.8806749665
 20
-2.6645908248
 30
0.0
  0
VERTEX
  8
0
 10
-11.8371684998
 20
-2.68921396378
 30
0.0
  0
VERTEX
  8
0
 10
-11.792192152
 20
-2.71103933118
 30
0.0
  0
VERTEX
  8
0
 10
-11.7459966106
 20
-2.73015149359
 30
0.0
  0
VERTEX
  8
0
 10
-11.6987964312
 20
-2.74662911789
 30
0.0
  0
VERTEX
  8
0
 10
-11.6507772807
 20
-2.76054249159
 30
0.0
  0
VERTEX
  8
0
 10
-11.6021020372
 20
-2.77195219857
 30
0.0
  0
VERTEX
  8
0
 10
-11.552915903
 20
-2.78090848632
 30
0.0
  0
VERTEX
  8
0
 10
-11.5033507146
 20
-2.78745102503
 30
0.0
  0
VERTEX
  8
0
 10
-11.4535286353
 20
-2.79160886827
 30
0.0
  0
VERTEX
  8
0
 10
-11.4035653969
 20
-2.79340049708
 30
0.0
  0
VERTEX
  8
0
 10
-11.3905828103
 20
-2.79347995711
 30
0.0
  0
SEQEND
  8
0
  0
POLYLINE
  8
0
 62
0
 70
0
 66
1
 10
0.0
 20
0.0
 30
0.0
  0
VERTEX
  8
0
 10
-11.3905828103
 20
-3.00561199147
 30
0.0
  0
VERTEX
  8
0
 10
-11.4405642691
 20
-3.00443304362
 30
0.0
  0
VERTEX
  8
0
 10
-11.4904339347
 20
-3.00089095847
 30
0.0
  0
VERTEX
  8
0
 10
-11.5400772554
 20
-2.99496999034
 30
0.0
  0
VERTEX
  8
0
 10
-11.589374035
 20
-2.9866438366
 30
0.0
  0
VERTEX
  8
0
 10
-11.6381952823
 20
-2.97587558497
 30
0.0
  0
VERTEX
  8
0
 10
-11.6863996522
 20
-2.96261772207
 30
0.0
  0
VERTEX
  8
0
 10
-11.7338293117
 20
-2.94681230718
 30
0.0
  0
VERTEX
  8
0
 10
-11.7803050547
 20
-2.92839147965
 30
0.0
  0
VERTEX
  8
0
 10
-11.8256204747
 20
-2.90727856678
 30
0.0
  0
VERTEX
  8
0
 10
-11.8695350296
 20
-2.88339020718
 30
0.0
  0
VERTEX
  8
0
 10
-11.9117659111
 20
-2.85664012
 30
0.0
  0
VERTEX
  8
0
 10
-11.9519788449
 20
-2.82694544676
 30
0.0
  0
VERTEX
  8
0
 10
-11.9897783975
 20
-2.79423695592
 30
0.0
  0
VERTEX
  8
0
 10
-12.0246992302
 20
-2.75847474272
 30
0.0
  0
VERTEX
  8
0
 10
-12.0562011896
 20
-2.71967111678
 30
0.0
  0
VERTEX
  8
0
 10
-12.0836732221
 20
-2.67792158709
 30
0.0
  0
VERTEX
  8
0
 10
-12.1064533072
 20
-2.63344231725
 30
0.0
  0
VERTEX
  8
0
 10
-12.1238721866
 20
-2.58660730822
 30
0.0
  0
VERTEX
  8
0
 10
-12.1353243816
 20
-2.53797158571
 30
0.0
  0
VERTEX
  8
0
 10
-12.1403581251
 20
-2.48826222385
 30
0.0
  0
VERTEX
  8
0
 10
-12.1405828103
 20
-2.47528190558
 30
0.0
  0
SEQEND
  8
0
  0
POLYLINE
  8
0
 62
0
 70
1
 66
1
 10
0.0
 20
0.0
 30
0.0
  0
VERTEX
  8
0
 10
-12.1388363466
 20
0.654905728393
 30
0.0
  0
VERTEX
  8
0
 10
-12.1388363466
 20
0.604905728393
 30
0.0
  0
SEQEND
  8
0
  0
POLYLINE
  8
0
 62
0
 70
0
 66
1
 10
0.0
 20
0.0
 30
0.0
  0
VERTEX
  8
0
 10
-12.1388363466
 20
0.6
 30
0.0
  0
VERTEX
  8
0
 10
-12.1388363466
 20
0.55
 30
0.0
  0
VERTEX
  8
0
 10
-12.1388363466
 20
0.5
 30
0.0
  0
VERTEX
  8
0
 10
-12.1388363466
 20
0.45
 30
0.0
  0
VERTEX
  8
0
 10
-12.1388363466
 20
0.4
 30
0.0
  0
VERTEX
  8
0
 10
-12.1388363466
 20
0.35
 30
0.0
  0
VERTEX
  8
0
 10
-12.1388363466
 20
0.3
 30
0.0
  0
VERTEX
  8
0
 10
-12.1388363466
 20
0.25
 30
0.0
  0
VERTEX
  8
0
 10
-12.1388363466
 20
0.2
 30
0.0
  0
VERTEX
  8
0
 10
-12.1388363466
 20
0.15
 30
0.0
  0
VERTEX
  8
0
 10
-12.1388363466
 20
0.0999999999997
 30
0.0
  0
VERTEX
  8
0
 10
-12.1388363466
 20
0.0499999999997
 30
0.0
  0
VERTEX
  8
0
 10
-12.1388363466
 20
-3.63792685016e-13
 30
0.0
  0
VERTEX
  8
0
 10
-12.1388363466
 20
-0.0500000000004
 30
0.0
  0
VERTEX
  8
0
 10
-12.1388363466
 20
-0.1
 30
0.0
  0
VERTEX
  8
0
 10
-12.1388363466
 20
-0.15
 30
0.0
  0
VERTEX
  8
0
 10
-12.1388363466
 20
-0.2
 30
0.0
  0
VERTEX
  8
0
 10
-12.1388363466
 20
-0.25
 30
0.0
  0
VERTEX
  8
0
 10
-12.1388363466
 20
-0.3
 30
0.0
  0
VERTEX
  8
0
 10
-12.1388363466
 20
-0.35
 30
0.0
  0
VERTEX
  8
0
 10
-12.1388363466
 20
-0.4
 30
0.0
  0
VERTEX
  8
0
 10
-12.1388363466
 20
-0.45
 30
0.0
  0
VERTEX
  8
0
 10
-12.1388363466
 20
-0.5
 30
0.0
  0
VERTEX
  8
0
 10
-12.1388363466
 20
-0.55
 30
0.0
  0
VERTEX
  8
0
 10
-12.1388363466
 20
-0.6
 30
0.0
  0
SEQEND
  8
0
  0
POLYLINE
  8
0
 62
0
 70
1
 66
1
 10
0.0
 20
0.0
 30
0.0
  0
VERTEX
  8
0
 10
-12.1388363466
 20
-0.6
 30
0.0
  0
VERTEX
  8
0
 10
-12.1388363466
 20
-0.65
 30
0.0
  0
SEQEND
  8
0
  0
POLYLINE
  8
0
 62
0
 70
0
 66
1
 10
0.0
 20
0.0
 30
0.0
  0
VERTEX
  8
0
 10
-10.5605828103
 20
-1.86006590953
 30
0.0
  0
VERTEX
  8
0
 10
-10.5605828103
 20
-1.81006590953
 30
0.0
  0
VERTEX
  8
0
 10
-10.5605828103
 20
-1.76006590953
 30
0.0
  0
VERTEX
  8
0
 10
-10.5605828103
 20
-1.71006590953
 30
0.0
  0
VERTEX
  8
0
 10
-10.5605828103
 20
-1.66006590953
 30
0.0
  0
VERTEX
  8
0
 10
-10.5605828103
 20
-1.61006590953
 30
0.0
  0
VERTEX
  8
0
 10
-10.5605828103
 20
-1.56006590953
 30
0.0
  0
VERTEX
  8
0
 10
-10.5605828103
 20
-1.51006590953
 30
0.0
  0
VERTEX
  8
0
 10
-10.5605828103
 20
-1.46006590953
 30
0.0
  0
VERTEX
  8
0
 10
-10.5605828103
 20
-1.41006590953
 30
0.0
  0
VERTEX
  8
0
 10
-10.5605828103
 20
-1.36006590953
 30
0.0
  0
VERTEX
  8
0
 10
-10.5605828103
 20
-1.31006590953
 30
0.0
  0
VERTEX
  8
0
 10
-10.5605828103
 20
-1.26006590953
 30
0.0
  0
VERTEX
  8
0
 10
-10.5605828103
 20
-1.21006590953
 30
0.0
  0
VERTEX
  8
0
 10
-10.5605828103
 20
-1.16006590953
 30
0.0
  0
VERTEX
  8
0
 10
-10.5605828103
 20
-1.11006590953
 30
0.0
  0
VERTEX
  8
0
 10
-10.5605828103
 20
-1.06006590953
 30
0.0
  0
VERTEX
  8
0
 10
-10.5605828103
 20
-1.01006590953
 30
0.0
  0
VERTEX
  8
0
 10
-10.5605828103
 20
-0.960065909527
 30
0.0
  0
VERTEX
  8
0
 10
-10.5605828103
 20
-0.910065909527
 30
0.0
  0
VERTEX
  8
0
 10
-10.5605828103
 20
-0.860065909527
 30
0.0
  0
VERTEX
  8
0
 10
-10.5605828103
 20
-0.810065909527
 30
0.0
  0
VERTEX
  8
0
 10
-10.5605828103
 20
-0.760065909527
 30
0.0
  0
VERTEX
  8
0
 10
-10.5605828103
 20
-0.710065909527
 30
0.0
  0
VERTEX
  8
0
 10
-10.5605828103
 20
-0.660065909527
 30
0.0
  0
VERTEX
  8
0
 10
-10.5605828103
 20
-0.610065909527
 30
0.0
  0
VERTEX
  8
0
 10
-10.5605828103
 20
-0.560065909527
 30
0.0
  0
VERTEX
  8
0
 10
-10.5605828103
 20
-0.510065909527
 30
0.0
  0
VERTEX
  8
0
 10
-10.5605828103
 20
-0.460065909527
 30
0.0
  0
VERTEX
  8
0
 10
-10.5605828103
 20
-0.410065909527
 30
0.0
  0
VERTEX
  8
0
 10
-10.5605828103
 20
-0.360065909527
 30
0.0
  0
VERTEX
  8
0
 10
-10.5605828103
 20
-0.310065909527
 30
0.0
  0
VERTEX
  8
0
 10
-10.5605828103
 20
-0.260065909527
 30
0.0
  0
VERTEX
  8
0
 10
-10.5605828103
 20
-0.210065909527
 30
0.0
  0
VERTEX
  8
0
 10
-10.5605828103
 20
-0.160065909527
 30
0.0
  0
VERTEX
  8
0
 10
-10.5605828103
 20
-0.110065909527
 30
0.0
  0
VERTEX
  8
0
 10
-10.5605828103
 20
-0.0600659095274
 30
0.0
  0
VERTEX
  8
0
 10
-10.5605828103
 20
-0.0100659095274
 30
0.0
  0
VERTEX
  8
0
 10
-10.5605828103
 20
0.0399340904726
 30
0.0
  0
VERTEX
  8
0
 10
-10.5605828103
 20
0.0899340904726
 30
0.0
  0
VERTEX
  8
0
 10
-10.5605828103
 20
0.139934090473
 30
0.0
  0
VERTEX
  8
0
 10
-10.5605828103
 20
0.189934090473
 30
0.0
  0
VERTEX
  8
0
 10
-10.5605828103
 20
0.239934090473
 30
0.0
  0
VERTEX
  8
0
 10
-10.5605828103
 20
0.289934090473
 30
0.0
  0
VERTEX
  8
0
 10
-10.5605828103
 20
0.339934090473
 30
0.0
  0
VERTEX
  8
0
 10
-10.5605828103
 20
0.389934090473
 30
0.0
  0
VERTEX
  8
0
 10
-10.5605828103
 20
0.439934090473
 30
0.0
  0
VERTEX
  8
0
 10
-10.5605828103
 20
0.489934090473
 30
0.0
  0
VERTEX
  8
0
 10
-10.5605828103
 20
0.539934090473
 30
0.0
  0
VERTEX
  8
0
 10
-10.5605828103
 20
0.589934090473
 30
0.0
  0
VERTEX
  8
0
 10
-10.5605828103
 20
0.639934090473
 30
0.0
  0
VERTEX
  8
0
 10
-10.5605828103
 20
0.689934090473
 30
0.0
  0
VERTEX
  8
0
 10
-10.5605828103
 20
0.739934090473
 30
0.0
  0
VERTEX
  8
0
 10
-10.5605828103
 20
0.789934090473
 30
0.0
  0
VERTEX
  8
0
 10
-10.5605828103
 20
0.839934090473
 30
0.0
  0
VERTEX
  8
0
 10
-10.5605828103
 20
0.889934090473
 30
0.0
  0
VERTEX
  8
0
 10
-10.5605828103
 20
0.939934090473
 30
0.0
  0
VERTEX
  8
0
 10
-10.5605828103
 20
0.989934090473
 30
0.0
  0
VERTEX
  8
0
 10
-10.5605828103
 20
1.03993409047
 30
0.0
  0
VERTEX
  8
0
 10
-10.5605828103
 20
1.08993409047
 30
0.0
  0
VERTEX
  8
0
 10
-10.5605828103
 20
1.13993409047
 30
0.0
  0
VERTEX
  8
0
 10
-10.5605828103
 20
1.18993409047
 30
0.0
  0
VERTEX
  8
0
 10
-10.5605828103
 20
1.23993409047
 30
0.0
  0
VERTEX
  8
0
 10
-10.5605828103
 20
1.28993409047
 30
0.0
  0
VERTEX
  8
0
 10
-10.5605828103
 20
1.33993409047
 30
0.0
  0
VERTEX
  8
0
 10
-10.5605828103
 20
1.38993409047
 30
0.0
  0
VERTEX
  8
0
 10
-10.5605828103
 20
1.43993409047
 30
0.0
  0
VERTEX
  8
0
 10
-10.5605828103
 20
1.48993409047
 30
0.0
  0
VERTEX
  8
0
 10
-10.5605828103
 20
1.53993409047
 30
0.0
  0
VERTEX
  8
0
 10
-10.5605828103
 20
1.58993409047
 30
0.0
  0
VERTEX
  8
0
 10
-10.5605828103
 20
1.63993409047
 30
0.0
  0
VERTEX
  8
0
 10
-10.5605828103
 20
1.68993409047
 30
0.0
  0
VERTEX
  8
0
 10
-10.5605828103
 20
1.73993409047
 30
0.0
  0
VERTEX
  8
0
 10
-10.5605828103
 20
1.78993409047
 30
0.0
  0
VERTEX
  8
0
 10
-10.5605828103
 20
1.83993409047
 30
0.0
  0
VERTEX
  8
0
 10
-10.5605828103
 20
1.88993409047
 30
0.0
  0
VERTEX
  8
0
 10
-10.5605828103
 20
1.93993409047
 30
0.0
  0
VERTEX
  8
0
 10
-10.5605828103
 20
1.98993409047
 30
0.0
  0
VERTEX
  8
0
 10
-10.5605828103
 20
2.01520144661
 30
0.0
  0
SEQEND
  8
0
  0
POLYLINE
  8
0
 62
0
 70
0
 66
1
 10
0.0
 20
0.0
 30
0.0
  0
VERTEX
  8
0
 10
-12.1405828103
 20
-1.75636993415
 30
0.0
  0
VERTEX
  8
0
 10
-12.1405828103
 20
-1.70636993415
 30
0.0
  0
VERTEX
  8
0
 10
-12.1405828103
 20
-1.65636993415
 30
0.0
  0
VERTEX
  8
0
 10
-12.1405828103
 20
-1.60636993415
 30
0.0
  0
VERTEX
  8
0
 10
-12.1405828103
 20
-1.55636993415
 30
0.0
  0
VERTEX
  8
0
 10
-12.1405828103
 20
-1.50636993415
 30
0.0
  0
VERTEX
  8
0
 10
-12.1405828103
 20
-1.45636993415
 30
0.0
  0
VERTEX
  8
0
 10
-12.1405828103
 20
-1.40636993415
 30
0.0
  0
VERTEX
  8
0
 10
-12.1405828103
 20
-1.35636993415
 30
0.0
  0
VERTEX
  8
0
 10
-12.1405828103
 20
-1.30636993415
 30
0.0
  0
VERTEX
  8
0
 10
-12.1405828103
 20
-1.25636993415
 30
0.0
  0
VERTEX
  8
0
 10
-12.1405828103
 20
-1.20636993415
 30
0.0
  0
VERTEX
  8
0
 10
-12.1405828103
 20
-1.15636993415
 30
0.0
  0
VERTEX
  8
0
 10
-12.1405828103
 20
-1.10636993415
 30
0.0
  0
VERTEX
  8
0
 10
-12.1405828103
 20
-1.05636993415
 30
0.0
  0
VERTEX
  8
0
 10
-12.1405828103
 20
-1.00636993415
 30
0.0
  0
VERTEX
  8
0
 10
-12.1405828103
 20
-0.956369934147
 30
0.0
  0
VERTEX
  8
0
 10
-12.1405828103
 20
-0.906369934147
 30
0.0
  0
VERTEX
  8
0
 10
-12.1405828103
 20
-0.856369934147
 30
0.0
  0
VERTEX
  8
0
 10
-12.1405828103
 20
-0.806369934147
 30
0.0
  0
VERTEX
  8
0
 10
-12.1405828103
 20
-0.756369934147
 30
0.0
  0
VERTEX
  8
0
 10
-12.1405828103
 20
-0.712739868294
 30
0.0
  0
SEQEND
  8
0
  0
POLYLINE
  8
0
 62
0
 70
0
 66
1
 10
0.0
 20
0.0
 30
0.0
  0
VERTEX
  8
0
 10
-11.3905828103
 20
-1.75636993415
 30
0.0
  0
VERTEX
  8
0
 10
-11.3905828103
 20
-1.70636993415
 30
0.0
  0
VERTEX
  8
0
 10
-11.3905828103
 20
-1.65636993415
 30
0.0
  0
VERTEX
  8
0
 10
-11.3905828103
 20
-1.60636993415
 30
0.0
  0
VERTEX
  8
0
 10
-11.3905828103
 20
-1.55636993415
 30
0.0
  0
VERTEX
  8
0
 10
-11.3905828103
 20
-1.50636993415
 30
0.0
  0
VERTEX
  8
0
 10
-11.3905828103
 20
-1.45636993415
 30
0.0
  0
VERTEX
  8
0
 10
-11.3905828103
 20
-1.40636993415
 30
0.0
  0
VERTEX
  8
0
 10
-11.3905828103
 20
-1.35636993415
 30
0.0
  0
VERTEX
  8
0
 10
-11.3905828103
 20
-1.30636993415
 30
0.0
  0
VERTEX
  8
0
 10
-11.3905828103
 20
-1.25636993415
 30
0.0
  0
VERTEX
  8
0
 10
-11.3905828103
 20
-1.20636993415
 30
0.0
  0
VERTEX
  8
0
 10
-11.3905828103
 20
-1.15636993415
 30
0.0
  0
VERTEX
  8
0
 10
-11.3905828103
 20
-1.10636993415
 30
0.0
  0
VERTEX
  8
0
 10
-11.3905828103
 20
-1.05636993415
 30
0.0
  0
VERTEX
  8
0
 10
-11.3905828103
 20
-1.00636993415
 30
0.0
  0
VERTEX
  8
0
 10
-11.3905828103
 20
-0.956369934147
 30
0.0
  0
VERTEX
  8
0
 10
-11.3905828103
 20
-0.906369934147
 30
0.0
  0
VERTEX
  8
0
 10
-11.3905828103
 20
-0.856369934147
 30
0.0
  0
VERTEX
  8
0
 10
-11.3905828103
 20
-0.806369934147
 30
0.0
  0
VERTEX
  8
0
 10
-11.3905828103
 20
-0.756369934147
 30
0.0
  0
VERTEX
  8
0
 10
-11.3905828103
 20
-0.712739868294
 30
0.0
  0
SEQEND
  8
0
  0
POLYLINE
  8
0
 62
0
 70
0
 66
1
 10
0.0
 20
0.0
 30
0.0
  0
VERTEX
  8
0
 10
9.1394171897
 20
-2.01520144661
 30
0.0
  0
VERTEX
  8
0
 10
9.1394171897
 20
-1.96520144661
 30
0.0
  0
VERTEX
  8
0
 10
9.1394171897
 20
-1.91520144661
 30
0.0
  0
VERTEX
  8
0
 10
9.1394171897
 20
-1.86520144661
 30
0.0
  0
VERTEX
  8
0
 10
9.1394171897
 20
-1.81520144661
 30
0.0
  0
VERTEX
  8
0
 10
9.1394171897
 20
-1.76520144661
 30
0.0
  0
VERTEX
  8
0
 10
9.1394171897
 20
-1.71520144661
 30
0.0
  0
VERTEX
  8
0
 10
9.1394171897
 20
-1.66520144661
 30
0.0
  0
VERTEX
  8
0
 10
9.1394171897
 20
-1.61520144661
 30
0.0
  0
VERTEX
  8
0
 10
9.1394171897
 20
-1.56520144661
 30
0.0
  0
VERTEX
  8
0
 10
9.1394171897
 20
-1.51520144661
 30
0.0
  0
VERTEX
  8
0
 10
9.1394171897
 20
-1.46520144661
 30
0.0
  0
VERTEX
  8
0
 10
9.1394171897
 20
-1.41520144661
 30
0.0
  0
VERTEX
  8
0
 10
9.1394171897
 20
-1.36520144661
 30
0.0
  0
VERTEX
  8
0
 10
9.1394171897
 20
-1.31520144661
 30
0.0
  0
VERTEX
  8
0
 10
9.1394171897
 20
-1.26520144661
 30
0.0
  0
VERTEX
  8
0
 10
9.1394171897
 20
-1.21520144661
 30
0.0
  0
VERTEX
  8
0
 10
9.1394171897
 20
-1.16520144661
 30
0.0
  0
VERTEX
  8
0
 10
9.1394171897
 20
-1.11520144661
 30
0.0
  0
VERTEX
  8
0
 10
9.1394171897
 20
-1.06520144661
 30
0.0
  0
VERTEX
  8
0
 10
9.1394171897
 20
-1.01520144661
 30
0.0
  0
VERTEX
  8
0
 10
9.1394171897
 20
-0.965201446612
 30
0.0
  0
VERTEX
  8
0
 10
9.1394171897
 20
-0.915201446612
 30
0.0
  0
VERTEX
  8
0
 10
9.1394171897
 20
-0.865201446612
 30
0.0
  0
VERTEX
  8
0
 10
9.1394171897
 20
-0.815201446612
 30
0.0
  0
VERTEX
  8
0
 10
9.1394171897
 20
-0.765201446612
 30
0.0
  0
VERTEX
  8
0
 10
9.1394171897
 20
-0.715201446612
 30
0.0
  0
VERTEX
  8
0
 10
9.1394171897
 20
-0.665201446612
 30
0.0
  0
VERTEX
  8
0
 10
9.1394171897
 20
-0.615201446612
 30
0.0
  0
VERTEX
  8
0
 10
9.1394171897
 20
-0.565201446612
 30
0.0
  0
VERTEX
  8
0
 10
9.1394171897
 20
-0.515201446612
 30
0.0
  0
VERTEX
  8
0
 10
9.1394171897
 20
-0.465201446612
 30
0.0
  0
VERTEX
  8
0
 10
9.1394171897
 20
-0.415201446612
 30
0.0
  0
VERTEX
  8
0
 10
9.1394171897
 20
-0.365201446612
 30
0.0
  0
VERTEX
  8
0
 10
9.1394171897
 20
-0.315201446612
 30
0.0
  0
VERTEX
  8
0
 10
9.1394171897
 20
-0.265201446612
 30
0.0
  0
VERTEX
  8
0
 10
9.1394171897
 20
-0.215201446612
 30
0.0
  0
VERTEX
  8
0
 10
9.1394171897
 20
-0.165201446612
 30
0.0
  0
VERTEX
  8
0
 10
9.1394171897
 20
-0.115201446612
 30
0.0
  0
VERTEX
  8
0
 10
9.1394171897
 20
-0.0652014466116
 30
0.0
  0
VERTEX
  8
0
 10
9.1394171897
 20
-0.0152014466116
 30
0.0
  0
VERTEX
  8
0
 10
9.1394171897
 20
0.0347985533884
 30
0.0
  0
VERTEX
  8
0
 10
9.1394171897
 20
0.0847985533884
 30
0.0
  0
VERTEX
  8
0
 10
9.1394171897
 20
0.134798553388
 30
0.0
  0
VERTEX
  8
0
 10
9.1394171897
 20
0.184798553388
 30
0.0
  0
VERTEX
  8
0
 10
9.1394171897
 20
0.234798553388
 30
0.0
  0
VERTEX
  8
0
 10
9.1394171897
 20
0.284798553388
 30
0.0
  0
VERTEX
  8
0
 10
9.1394171897
 20
0.334798553388
 30
0.0
  0
VERTEX
  8
0
 10
9.1394171897
 20
0.384798553388
 30
0.0
  0
VERTEX
  8
0
 10
9.1394171897
 20
0.434798553388
 30
0.0
  0
VERTEX
  8
0
 10
9.1394171897
 20
0.484798553388
 30
0.0
  0
VERTEX
  8
0
 10
9.1394171897
 20
0.534798553388
 30
0.0
  0
VERTEX
  8
0
 10
9.1394171897
 20
0.584798553388
 30
0.0
  0
VERTEX
  8
0
 10
9.1394171897
 20
0.634798553388
 30
0.0
  0
VERTEX
  8
0
 10
9.1394171897
 20
0.684798553388
 30
0.0
  0
VERTEX
  8
0
 10
9.1394171897
 20
0.734798553388
 30
0.0
  0
VERTEX
  8
0
 10
9.1394171897
 20
0.784798553388
 30
0.0
  0
VERTEX
  8
0
 10
9.1394171897
 20
0.834798553388
 30
0.0
  0
VERTEX
  8
0
 10
9.1394171897
 20
0.884798553388
 30
0.0
  0
VERTEX
  8
0
 10
9.1394171897
 20
0.934798553388
 30
0.0
  0
VERTEX
  8
0
 10
9.1394171897
 20
0.984798553388
 30
0.0
  0
VERTEX
  8
0
 10
9.1394171897
 20
1.03479855339
 30
0.0
  0
VERTEX
  8
0
 10
9.1394171897
 20
1.08479855339
 30
0.0
  0
VERTEX
  8
0
 10
9.1394171897
 20
1.13479855339
 30
0.0
  0
VERTEX
  8
0
 10
9.1394171897
 20
1.18479855339
 30
0.0
  0
VERTEX
  8
0
 10
9.1394171897
 20
1.23479855339
 30
0.0
  0
VERTEX
  8
0
 10
9.1394171897
 20
1.28479855339
 30
0.0
  0
VERTEX
  8
0
 10
9.1394171897
 20
1.33479855339
 30
0.0
  0
VERTEX
  8
0
 10
9.1394171897
 20
1.38479855339
 30
0.0
  0
VERTEX
  8
0
 10
9.1394171897
 20
1.43479855339
 30
0.0
  0
VERTEX
  8
0
 10
9.1394171897
 20
1.48479855339
 30
0.0
  0
VERTEX
  8
0
 10
9.1394171897
 20
1.53479855339
 30
0.0
  0
VERTEX
  8
0
 10
9.1394171897
 20
1.58479855339
 30
0.0
  0
VERTEX
  8
0
 10
9.1394171897
 20
1.63479855339
 30
0.0
  0
VERTEX
  8
0
 10
9.1394171897
 20
1.68479855339
 30
0.0
  0
VERTEX
  8
0
 10
9.1394171897
 20
1.73479855339
 30
0.0
  0
VERTEX
  8
0
 10
9.1394171897
 20
1.78479855339
 30
0.0
  0
VERTEX
  8
0
 10
9.1394171897
 20
1.83479855339
 30
0.0
  0
VERTEX
  8
0
 10
9.1394171897
 20
1.86006590953
 30
0.0
  0
SEQEND
  8
0
  0
POLYLINE
  8
0
 62
0
 70
0
 66
1
 10
0.0
 20
0.0
 30
0.0
  0
VERTEX
  8
0
 10
-10.2605828103
 20
2.01520144661
 30
0.0
  0
VERTEX
  8
0
 10
-10.2605828103
 20
1.96520144661
 30
0.0
  0
VERTEX
  8
0
 10
-10.2605828103
 20
1.91520144661
 30
0.0
  0
VERTEX
  8
0
 10
-10.2605828103
 20
1.86520144661
 30
0.0
  0
VERTEX
  8
0
 10
-10.2605828103
 20
1.81520144661
 30
0.0
  0
VERTEX
  8
0
 10
-10.2605828103
 20
1.76520144661
 30
0.0
  0
VERTEX
  8
0
 10
-10.2605828103
 20
1.71520144661
 30
0.0
  0
VERTEX
  8
0
 10
-10.2605828103
 20
1.66520144661
 30
0.0
  0
VERTEX
  8
0
 10
-10.2605828103
 20
1.61520144661
 30
0.0
  0
VERTEX
  8
0
 10
-10.2605828103
 20
1.56520144661
 30
0.0
  0
VERTEX
  8
0
 10
-10.2605828103
 20
1.51520144661
 30
0.0
  0
VERTEX
  8
0
 10
-10.2605828103
 20
1.46520144661
 30
0.0
  0
VERTEX
  8
0
 10
-10.2605828103
 20
1.41520144661
 30
0.0
  0
VERTEX
  8
0
 10
-10.2605828103
 20
1.36520144661
 30
0.0
  0
VERTEX
  8
0
 10
-10.2605828103
 20
1.31520144661
 30
0.0
  0
VERTEX
  8
0
 10
-10.2605828103
 20
1.26520144661
 30
0.0
  0
VERTEX
  8
0
 10
-10.2605828103
 20
1.21520144661
 30
0.0
  0
VERTEX
  8
0
 10
-10.2605828103
 20
1.16520144661
 30
0.0
  0
VERTEX
  8
0
 10
-10.2605828103
 20
1.11520144661
 30
0.0
  0
VERTEX
  8
0
 10
-10.2605828103
 20
1.06520144661
 30
0.0
  0
VERTEX
  8
0
 10
-10.2605828103
 20
1.01520144661
 30
0.0
  0
VERTEX
  8
0
 10
-10.2605828103
 20
0.965201446612
 30
0.0
  0
VERTEX
  8
0
 10
-10.2605828103
 20
0.915201446612
 30
0.0
  0
VERTEX
  8
0
 10
-10.2605828103
 20
0.865201446612
 30
0.0
  0
VERTEX
  8
0
 10
-10.2605828103
 20
0.815201446612
 30
0.0
  0
VERTEX
  8
0
 10
-10.2605828103
 20
0.765201446612
 30
0.0
  0
VERTEX
  8
0
 10
-10.2605828103
 20
0.715201446612
 30
0.0
  0
VERTEX
  8
0
 10
-10.2605828103
 20
0.665201446612
 30
0.0
  0
VERTEX
  8
0
 10
-10.2605828103
 20
0.615201446612
 30
0.0
  0
VERTEX
  8
0
 10
-10.2605828103
 20
0.565201446612
 30
0.0
  0
VERTEX
  8
0
 10
-10.2605828103
 20
0.515201446612
 30
0.0
  0
VERTEX
  8
0
 10
-10.2605828103
 20
0.465201446612
 30
0.0
  0
VERTEX
  8
0
 10
-10.2605828103
 20
0.415201446612
 30
0.0
  0
VERTEX
  8
0
 10
-10.2605828103
 20
0.365201446612
 30
0.0
  0
VERTEX
  8
0
 10
-10.2605828103
 20
0.315201446612
 30
0.0
  0
VERTEX
  8
0
 10
-10.2605828103
 20
0.265201446612
 30
0.0
  0
VERTEX
  8
0
 10
-10.2605828103
 20
0.215201446612
 30
0.0
  0
VERTEX
  8
0
 10
-10.2605828103
 20
0.165201446612
 30
0.0
  0
VERTEX
  8
0
 10
-10.2605828103
 20
0.115201446612
 30
0.0
  0
VERTEX
  8
0
 10
-10.2605828103
 20
0.0652014466118
 30
0.0
  0
VERTEX
  8
0
 10
-10.2605828103
 20
0.0152014466118
 30
0.0
  0
VERTEX
  8
0
 10
-10.2605828103
 20
-0.0347985533882
 30
0.0
  0
VERTEX
  8
0
 10
-10.2605828103
 20
-0.0847985533882
 30
0.0
  0
VERTEX
  8
0
 10
-10.2605828103
 20
-0.134798553388
 30
0.0
  0
VERTEX
  8
0
 10
-10.2605828103
 20
-0.184798553388
 30
0.0
  0
VERTEX
  8
0
 10
-10.2605828103
 20
-0.234798553388
 30
0.0
  0
VERTEX
  8
0
 10
-10.2605828103
 20
-0.284798553388
 30
0.0
  0
VERTEX
  8
0
 10
-10.2605828103
 20
-0.334798553388
 30
0.0
  0
VERTEX
  8
0
 10
-10.2605828103
 20
-0.384798553388
 30
0.0
  0
VERTEX
  8
0
 10
-10.2605828103
 20
-0.434798553388
 30
0.0
  0
VERTEX
  8
0
 10
-10.2605828103
 20
-0.484798553388
 30
0.0
  0
VERTEX
  8
0
 10
-10.2605828103
 20
-0.534798553388
 30
0.0
  0
VERTEX
  8
0
 10
-10.2605828103
 20
-0.584798553388
 30
0.0
  0
VERTEX
  8
0
 10
-10.2605828103
 20
-0.634798553388
 30
0.0
  0
VERTEX
  8
0
 10
-10.2605828103
 20
-0.684798553388
 30
0.0
  0
VERTEX
  8
0
 10
-10.2605828103
 20
-0.734798553388
 30
0.0
  0
VERTEX
  8
0
 10
-10.2605828103
 20
-0.784798553388
 30
0.0
  0
VERTEX
  8
0
 10
-10.2605828103
 20
-0.834798553388
 30
0.0
  0
VERTEX
  8
0
 10
-10.2605828103
 20
-0.884798553388
 30
0.0
  0
VERTEX
  8
0
 10
-10.2605828103
 20
-0.934798553388
 30
0.0
  0
VERTEX
  8
0
 10
-10.2605828103
 20
-0.984798553388
 30
0.0
  0
VERTEX
  8
0
 10
-10.2605828103
 20
-1.03479855339
 30
0.0
  0
VERTEX
  8
0
 10
-10.2605828103
 20
-1.08479855339
 30
0.0
  0
VERTEX
  8
0
 10
-10.2605828103
 20
-1.13479855339
 30
0.0
  0
VERTEX
  8
0
 10
-10.2605828103
 20
-1.18479855339
 30
0.0
  0
VERTEX
  8
0
 10
-10.2605828103
 20
-1.23479855339
 30
0.0
  0
VERTEX
  8
0
 10
-10.2605828103
 20
-1.28479855339
 30
0.0
  0
VERTEX
  8
0
 10
-10.2605828103
 20
-1.33479855339
 30
0.0
  0
VERTEX
  8
0
 10
-10.2605828103
 20
-1.38479855339
 30
0.0
  0
VERTEX
  8
0
 10
-10.2605828103
 20
-1.43479855339
 30
0.0
  0
VERTEX
  8
0
 10
-10.2605828103
 20
-1.48479855339
 30
0.0
  0
VERTEX
  8
0
 10
-10.2605828103
 20
-1.53479855339
 30
0.0
  0
VERTEX
  8
0
 10
-10.2605828103
 20
-1.58479855339
 30
0.0
  0
VERTEX
  8
0
 10
-10.2605828103
 20
-1.63479855339
 30
0.0
  0
VERTEX
  8
0
 10
-10.2605828103
 20
-1.68479855339
 30
0.0
  0
VERTEX
  8
0
 10
-10.2605828103
 20
-1.73479855339
 30
0.0
  0
VERTEX
  8
0
 10
-10.2605828103
 20
-1.78479855339
 30
0.0
  0
VERTEX
  8
0
 10
-10.2605828103
 20
-1.83479855339
 30
0.0
  0
VERTEX
  8
0
 10
-10.2605828103
 20
-1.86006590953
 30
0.0
  0
SEQEND
  8
0
  0
LINE
  8
0
 62
0
 10
11.0194171897
 20
0.712739868294
 30
0.0
 11
10.2694171897
 21
0.712739868294
 31
0.0
  0
LINE
  8
0
 62
0
 10
11.0194171897
 20
2.3232233047
 30
0.0
 11
11.0194171897
 21
1.95678114747
 31
0.0
  0
LINE
  8
0
 62
0
 10
11.0194171897
 20
2.47528190558
 30
0.0
 11
11.0194171897
 21
2.26314987122
 31
0.0
  0
LINE
  8
0
 62
0
 10
11.0194171897
 20
2.26314987122
 30
0.0
 11
11.0194171897
 21
1.75636993415
 31
0.0
  0
LINE
  8
0
 62
0
 10
11.0194171897
 20
1.75636993415
 30
0.0
 11
10.2694171897
 21
1.75636993415
 31
0.0
  0
LINE
  8
0
 62
0
 10
10.2694171897
 20
2.09438048458
 30
0.0
 11
10.2694171897
 21
1.75636993415
 31
0.0
  0
LINE
  8
0
 62
0
 10
10.2694171897
 20
3.00561199147
 30
0.0
 11
4.4394171897
 21
3.00561199147
 31
0.0
  0
LINE
  8
0
 62
0
 10
10.2694171897
 20
2.79347995711
 30
0.0
 11
4.4394171897
 21
2.79347995711
 31
0.0
  0
LINE
  8
0
 62
0
 10
4.4394171897
 20
2.79347995711
 30
0.0
 11
4.4394171897
 21
2.09438048458
 31
0.0
  0
LINE
  8
0
 62
0
 10
10.2694171897
 20
1.86006590953
 30
0.0
 11
4.4394171897
 21
1.86006590953
 31
0.0
  0
LINE
  8
0
 62
0
 10
4.4394171897
 20
3.00561199147
 30
0.0
 11
4.4394171897
 21
2.79347995711
 31
0.0
  0
LINE
  8
0
 62
0
 10
-4.3105828103
 20
2.5
 30
0.0
 11
-5.5605828103
 21
2.5
 31
0.0
  0
LINE
  8
0
 62
0
 10
-4.3105828103
 20
3.75
 30
0.0
 11
-4.3105828103
 21
2.5
 31
0.0
  0
LINE
  8
0
 62
0
 10
3.1894171897
 20
3.75
 30
0.0
 11
-4.3105828103
 21
3.75
 31
0.0
  0
LINE
  8
0
 62
0
 10
3.1894171897
 20
2.5
 30
0.0
 11
3.1894171897
 21
3.75
 31
0.0
  0
LINE
  8
0
 62
0
 10
4.4394171897
 20
2.5
 30
0.0
 11
3.1894171897
 21
2.5
 31
0.0
  0
LINE
  8
0
 62
0
 10
-11.4994030417
 20
3.0
 30
0.0
 11
-11.5605828103
 21
3.0
 31
0.0
  0
LINE
  8
0
 62
0
 10
-11.5605828103
 20
4.5
 30
0.0
 11
-11.5605828103
 21
3.0
 31
0.0
  0
LINE
  8
0
 62
0
 10
10.4394171897
 20
4.5
 30
0.0
 11
-11.5605828103
 21
4.5
 31
0.0
  0
LINE
  8
0
 62
0
 10
10.4394171897
 20
3.0
 30
0.0
 11
10.4394171897
 21
4.5
 31
0.0
  0
LINE
  8
0
 62
0
 10
10.4394171897
 20
3.0
 30
0.0
 11
10.3782374211
 21
3.0
 31
0.0
  0
LINE
  8
0
 62
0
 10
10.4394171897
 20
3.0
 30
0.0
 11
10.3782374211
 21
3.0
 31
0.0
  0
LINE
  8
0
 62
0
 10
-10.3105828103
 20
1.7
 30
0.0
 11
-11.3905828103
 21
1.7
 31
0.0
  0
LINE
  8
0
 62
0
 10
-4.5605828103
 20
2.25
 30
0.0
 11
-4.3105828103
 21
2.5
 31
0.0
  0
LINE
  8
0
 62
0
 10
-4.3105828103
 20
2.5
 30
0.0
 11
-4.3105828103
 21
2.25
 31
0.0
  0
LINE
  8
0
 62
0
 10
-4.3105828103
 20
-2.5
 30
0.0
 11
-4.3105828103
 21
-3.75
 31
0.0
  0
LINE
  8
0
 62
0
 10
3.1894171897
 20
3.75
 30
0.0
 11
-4.3105828103
 21
3.75
 31
0.0
  0
LINE
  8
0
 62
0
 10
-5.5605828103
 20
2.8
 30
0.0
 11
-5.5605828103
 21
2.85355339059
 31
0.0
  0
LINE
  8
0
 62
0
 10
-5.5605828103
 20
2.79347995711
 30
0.0
 11
-5.5605828103
 21
3.00561199147
 31
0.0
  0
LINE
  8
0
 62
0
 10
-5.5605828103
 20
2.09438048458
 30
0.0
 11
-5.5605828103
 21
2.79347995711
 31
0.0
  0
LINE
  8
0
 62
0
 10
3.1894171897
 20
-3.75
 30
0.0
 11
3.1894171897
 21
-2.5
 31
0.0
  0
LINE
  8
0
 62
0
 10
3.1894171897
 20
2.25
 30
0.0
 11
3.1894171897
 21
2.5
 31
0.0
  0
LINE
  8
0
 62
0
 10
3.1894171897
 20
2.5
 30
0.0
 11
3.4394171897
 21
2.25
 31
0.0
  0
LINE
  8
0
 62
0
 10
10.2694171897
 20
1.7
 30
0.0
 11
9.4394171897
 21
1.7
 31
0.0
  0
LINE
  8
0
 62
0
 10
-11.4994030417
 20
3.0
 30
0.0
 11
-11.5605828103
 21
3.0
 31
0.0
  0
LINE
  8
0
 62
0
 10
-11.5605828103
 20
3.0
 30
0.0
 11
-11.5605828103
 21
2.99180876838
 31
0.0
  0
LINE
  8
0
 62
0
 10
10.4394171897
 20
2.99180876838
 30
0.0
 11
10.4394171897
 21
3.0
 31
0.0
  0
LINE
  8
0
 62
0
 10
4.4394171897
 20
-2.8
 30
0.0
 11
4.4394171897
 21
-2.85355339059
 31
0.0
  0
LINE
  8
0
 62
0
 10
4.4394171897
 20
-2.79347995711
 30
0.0
 11
4.4394171897
 21
-3.00561199147
 31
0.0
  0
LINE
  8
0
 62
0
 10
4.4394171897
 20
-2.09438048458
 30
0.0
 11
4.4394171897
 21
-2.79347995711
 31
0.0
  0
LINE
  8
0
 62
0
 10
4.4394171897
 20
2.25
 30
0.0
 11
-5.5605828103
 21
2.25
 31
0.0
  0
LINE
  8
0
 62
0
 10
4.4394171897
 20
-2.25
 30
0.0
 11
-5.5605828103
 21
-2.25
 31
0.0
  0
LINE
  8
0
 62
0
 10
11.017670726
 20
0.712739868294
 30
0.0
 11
11.017670726
 21
-1.75
 31
0.0
  0
LINE
  8
0
 62
0
 10
10.2694171897
 20
-2.79347995711
 30
0.0
 11
4.4394171897
 21
-2.79347995711
 31
0.0
  0
LINE
  8
0
 62
0
 10
11.0194171897
 20
-1.75636993415
 30
0.0
 11
11.0194171897
 21
-2.26314987122
 31
0.0
  0
LINE
  8
0
 62
0
 10
11.0194171897
 20
-1.75636993415
 30
0.0
 11
10.2694171897
 21
-1.75636993415
 31
0.0
  0
LINE
  8
0
 62
0
 10
10.2694171897
 20
-1.75636993415
 30
0.0
 11
10.2694171897
 21
-2.09438048458
 31
0.0
  0
LINE
  8
0
 62
0
 10
-5.5605828103
 20
-2.5
 30
0.0
 11
-4.3105828103
 21
-2.5
 31
0.0
  0
LINE
  8
0
 62
0
 10
-4.3105828103
 20
-3.75
 30
0.0
 11
3.1894171897
 21
-3.75
 31
0.0
  0
LINE
  8
0
 62
0
 10
-11.5605828103
 20
-3.0
 30
0.0
 11
-11.4994030417
 21
-3.0
 31
0.0
  0
LINE
  8
0
 62
0
 10
3.1894171897
 20
-2.5
 30
0.0
 11
4.4394171897
 21
-2.5
 31
0.0
  0
LINE
  8
0
 62
0
 10
-11.5605828103
 20
-3.0
 30
0.0
 11
-11.5605828103
 21
-4.5
 31
0.0
  0
LINE
  8
0
 62
0
 10
-11.5605828103
 20
-4.5
 30
0.0
 11
10.4394171897
 21
-4.5
 31
0.0
  0
LINE
  8
0
 62
0
 10
10.4394171897
 20
-4.5
 30
0.0
 11
10.4394171897
 21
-3.0
 31
0.0
  0
LINE
  8
0
 62
0
 10
10.3782374211
 20
-3.0
 30
0.0
 11
10.4394171897
 21
-3.0
 31
0.0
  0
LINE
  8
0
 62
0
 10
-11.5605828103
 20
1.7
 30
0.0
 11
-11.5605828103
 21
-0.712739868294
 31
0.0
  0
LINE
  8
0
 62
0
 10
-11.3905828103
 20
-1.7
 30
0.0
 11
-10.3105828103
 21
-1.7
 31
0.0
  0
LINE
  8
0
 62
0
 10
-4.5605828103
 20
-2.25
 30
0.0
 11
-4.3105828103
 21
-2.5
 31
0.0
  0
LINE
  8
0
 62
0
 10
-11.3905828103
 20
3.00561199147
 30
0.0
 11
-5.5605828103
 21
3.00561199147
 31
0.0
  0
LINE
  8
0
 62
0
 10
-11.3905828103
 20
2.79347995711
 30
0.0
 11
-5.5605828103
 21
2.79347995711
 31
0.0
  0
LINE
  8
0
 62
0
 10
-12.1405828103
 20
1.75636993415
 30
0.0
 11
-12.1405828103
 21
2.26314987122
 31
0.0
  0
LINE
  8
0
 62
0
 10
-12.1405828103
 20
1.75636993415
 30
0.0
 11
-11.3905828103
 21
1.75636993415
 31
0.0
  0
LINE
  8
0
 62
0
 10
-11.3905828103
 20
1.75636993415
 30
0.0
 11
-11.3905828103
 21
2.09438048458
 31
0.0
  0
LINE
  8
0
 62
0
 10
3.1894171897
 20
-2.5
 30
0.0
 11
3.4394171897
 21
-2.25
 31
0.0
  0
LINE
  8
0
 62
0
 10
10.4394171897
 20
-1.7
 30
0.0
 11
10.4394171897
 21
0.712739868294
 31
0.0
  0
LINE
  8
0
 62
0
 10
9.4394171897
 20
-1.7
 30
0.0
 11
10.2694171897
 21
-1.7
 31
0.0
  0
LINE
  8
0
 62
0
 10
11.0194171897
 20
-1.95678114747
 30
0.0
 11
11.0194171897
 21
-2.3232233047
 31
0.0
  0
LINE
  8
0
 62
0
 10
10.2694171897
 20
-3.00561199147
 30
0.0
 11
4.4394171897
 21
-3.00561199147
 31
0.0
  0
LINE
  8
0
 62
0
 10
10.3782374211
 20
-3.0
 30
0.0
 11
10.4394171897
 21
-3.0
 31
0.0
  0
LINE
  8
0
 62
0
 10
11.0194171897
 20
-2.26314987122
 30
0.0
 11
11.0194171897
 21
-2.47528190558
 31
0.0
  0
LINE
  8
0
 62
0
 10
-5.5605828103
 20
-2.79347995711
 30
0.0
 11
-5.5605828103
 21
-2.09438048458
 31
0.0
  0
LINE
  8
0
 62
0
 10
-5.5605828103
 20
-3.00561199147
 30
0.0
 11
-5.5605828103
 21
-2.79347995711
 31
0.0
  0
LINE
  8
0
 62
0
 10
-11.5605828103
 20
-3.0
 30
0.0
 11
-11.4994030417
 21
-3.0
 31
0.0
  0
LINE
  8
0
 62
0
 10
-11.5605828103
 20
-2.99180876838
 30
0.0
 11
-11.5605828103
 21
-3.0
 31
0.0
  0
LINE
  8
0
 62
0
 10
10.4394171897
 20
-3.0
 30
0.0
 11
10.4394171897
 21
-2.99180876838
 31
0.0
  0
LINE
  8
0
 62
0
 10
-12.1388363466
 20
-0.712739868294
 30
0.0
 11
-12.1388363466
 21
1.75
 31
0.0
  0
LINE
  8
0
 62
0
 10
-12.1405828103
 20
2.26314987122
 30
0.0
 11
-12.1405828103
 21
2.47528190558
 31
0.0
  0
LINE
  8
0
 62
0
 10
-12.1405828103
 20
-2.3232233047
 30
0.0
 11
-12.1405828103
 21
-1.95678114747
 31
0.0
  0
LINE
  8
0
 62
0
 10
-11.3905828103
 20
-1.86006590953
 30
0.0
 11
-5.5605828103
 21
-1.86006590953
 31
0.0
  0
LINE
  8
0
 62
0
 10
-12.1405828103
 20
-2.26314987122
 30
0.0
 11
-12.1405828103
 21
-1.75636993415
 31
0.0
  0
LINE
  8
0
 62
0
 10
-11.3905828103
 20
-2.79347995711
 30
0.0
 11
-5.5605828103
 21
-2.79347995711
 31
0.0
  0
LINE
  8
0
 62
0
 10
-11.3905828103
 20
-2.09438048458
 30
0.0
 11
-11.3905828103
 21
-1.75636993415
 31
0.0
  0
LINE
  8
0
 62
0
 10
-12.1405828103
 20
-1.75636993415
 30
0.0
 11
-11.3905828103
 21
-1.75636993415
 31
0.0
  0
LINE
  8
0
 62
0
 10
-11.3905828103
 20
-3.00561199147
 30
0.0
 11
-5.5605828103
 21
-3.00561199147
 31
0.0
  0
LINE
  8
0
 62
0
 10
-12.1405828103
 20
-2.47528190558
 30
0.0
 11
-12.1405828103
 21
-2.26314987122
 31
0.0
  0
LINE
  8
0
 62
0
 10
-12.1405828103
 20
-0.712739868294
 30
0.0
 11
-11.3905828103
 21
-0.712739868294
 31
0.0
  0
LINE
  8
0
 62
0
 10
10.2694171897
 20
2.79347995711
 30
0.0
 11
10.2694171897
 21
3.00561199147
 31
0.0
  0
LINE
  8
0
 62
0
 10
10.2694171897
 20
2.09438048458
 30
0.0
 11
4.4394171897
 21
2.09438048458
 31
0.0
  0
LINE
  8
0
 62
0
 10
10.5394171897
 20
0.712739868294
 30
0.0
 11
10.5394171897
 21
-1.75
 31
0.0
  0
LINE
  8
0
 62
0
 10
10.2694171897
 20
-2.09438048458
 30
0.0
 11
4.4394171897
 21
-2.09438048458
 31
0.0
  0
LINE
  8
0
 62
0
 10
-11.6605828103
 20
-0.712739868294
 30
0.0
 11
-11.6605828103
 21
1.75
 31
0.0
  0
LINE
  8
0
 62
0
 10
-11.3905828103
 20
3.00561199147
 30
0.0
 11
-11.3905828103
 21
2.79347995711
 31
0.0
  0
LINE
  8
0
 62
0
 10
-11.3905828103
 20
2.09438048458
 30
0.0
 11
-5.5605828103
 21
2.09438048458
 31
0.0
  0
LINE
  8
0
 62
0
 10
10.2694171897
 20
-3.00561199147
 30
0.0
 11
10.2694171897
 21
-2.79347995711
 31
0.0
  0
LINE
  8
0
 62
0
 10
-11.3905828103
 20
-2.09438048458
 30
0.0
 11
-5.5605828103
 21
-2.09438048458
 31
0.0
  0
LINE
  8
0
 62
0
 10
-11.3905828103
 20
-2.79347995711
 30
0.0
 11
-11.3905828103
 21
-3.00561199147
 31
0.0
  0
LINE
  8
0
 62
0
 10
10.2694171897
 20
-1.86006590953
 30
0.0
 11
4.4394171897
 21
-1.86006590953
 31
0.0
  0
LINE
  8
0
 62
0
 10
-11.3905828103
 20
1.86006590953
 30
0.0
 11
-5.5605828103
 21
1.86006590953
 31
0.0
  0
LINE
  8
0
 62
0
 10
11.0194171897
 20
-0.712739868294
 30
0.0
 11
10.2694171897
 21
-0.712739868294
 31
0.0
  0
LINE
  8
0
 62
0
 10
-12.1405828103
 20
0.712739868294
 30
0.0
 11
-11.3905828103
 21
0.712739868294
 31
0.0
  0
ENDBLK
  0
ENDSEC
  0
SECTION
  2
ENTITIES
  0
INSERT
  2
FUSION002
  8
0
 10
0.0
 20
0.0
 30
0.0
  0
ENDSEC
  0
EOF
